You are on page 1of 6

Gratia Mundi

Final Fantasy XV
Yoko Shimomura
Guitar Arrangement by Basisti94 (Miro Laaksonen)
28.2.2015

I don't think that Gratia Mundi is the official name for the track but that's
how it is known among the fans as we don't know the official name yet.

Also, the tempo is really really fast, so you almost certainly want to play it
much slower. It still sounds good that way and at least for me, playing it in
the original tempo is practically impossible.

Capo 3
Tempo ~ 180

Q Q Q Q E E Q Q Q Q Q E E Q
E||-----------------|------------------|-----------------|------------------|
B||-----------------|------------------|-----------------|------------------|
G||-------0----0----|-------0--0--0----|-------0----0----|-------0--0--0----|
D||-------2----2----|-------2--2--2----|-------2----2----|-------2--2--2----|
A||-------2----2----|-------2--2--2----|-------2----2----|-------2--2--2----|
E||--0--------------|--0---------------|--0--------------|--0---------------|

Q E E Q Q E E Q Q Q Q E E H
------------------|------------------|-----------------|-----------------|
--0----------0----|-------------0----|--3---------1----|--0-----0--------|
----------2-------|--0----2----------|-------2----2----|-----2--0--------|
-------2-----2----|-------2--2--2----|--0--------------|--------0--------|
-------2-----2----|-------2--2--2----|-----------------|-----------------|
--0---------------|--0---------------|-----------------|--3--------------|

Q Q Q Q E E E E Q E E E E Q E E E E
-----------------|-------------------|-------------------|-------------------|
-----------------|-------------------|-------------------|-------------------|
------------2----|-------------------|----------------2--|----------0--2--3--|
--2---------2----|--4-------5--4--0--|-------2-----2-----|--4----4-----------|
--3--------------|--5----0--0--0-----|--3-------2--------|--5----0--0--0-----|
-------3----3----|-------------------|-------3-----3-----|-------------------|

Q E E Q Q E E Q Q Q Q E E H
------------------|------------------|-----------------|-----------------|
--0----------0----|-------------0----|--3---------1----|--0-----0--------|
----------2-------|--0----2----------|-------2----2----|-----2--0--------|
-------2-----2----|-------2--2--2----|--0--------------|--------0--------|
-------2-----2----|-------2--2--2----|-----------------|-----------------|
--0---------------|--0---------------|-----------------|--3--------------|

Q Q Q Q E E E E Q Q Q Q E E E E
-----------------|-------------------|-----------------|-------2--3--5--6--|
------------0----|-------------------|-----------------|-------0-----0-----|
------------0----|--2-------0--------|-----------------|-------0-----0-----|
--2---------2----|--0----------4--0--|--2--------------|-------------------|
--3--------------|-------0--0--0-----|-------2----2----|-------------------|
-------3----3----|-------------------|--0--------------|--0----------------|

Q E E Q Q Q Q Q Q Q E E E E Q
--7-------5--7----|--3----5----7----|--10---------8----|--7--5--7----------|
-------0--0--0----|-------0----0----|--------7----7----|-------------------|
-------0--0--0----|-------0----0----|--------7----7----|--------0--0--0----|
------------------|-----------------|---0--------------|--------0--0--0----|
------------------|-----------------|------------------|-------------------|
--0---------------|--0--------------|------------------|--3----------------|

Q Q Q Q E E E E Q E E E E Q E E E E
------------5----|--2-------3--2-----|-------0-----0--5--|--2----2--3--5--6--|
--5--------------|-------3--------3--|----------0--------|-------3--3--3-----|
-------5----5----|-------2-----2-----|-------0-----0-----|-------2--2--2-----|
-------5----5----|--0----------------|-------2-----------|--0----------------|
--3--------------|-------------------|--3----------------|-------------------|
-----------------|-------------------|-------------------|-------------------|

Q E E Q Q E E Q Q E E Q E E E E Q
--7-------5--7----|--3----5-----7----|--10----------12----|--7--5--7----------|
-------0--0--0----|-------0--0--0----|--------7--7---7----|-------------------|
-------0--0--0----|-------0--0--0----|--------7--7---7----|--------0--0--0----|
------------------|------------------|---0----------------|--------0--0--0----|
------------------|------------------|--------------------|-------------------|
--0---------------|--0---------------|--------------------|--3----------------|

NH ^
Q Q E E Q E E E E Q Q Q Q H
------------3--7--|--5-------3--2-----|--0----7----10----|--<>12-------------|
--5---------------|-------3--------3--|-------0-----0----|----------5--------|
-------5----5-----|-------2-----2-----|-------0-----0----|----------4--------|
-------5----5-----|--0----------------|------------------|----------2--------|
--3---------------|-------------------|------------------|-------------------|
------------------|-------------------|--0---------------|-----0-------------|

E E E E E E E E E E E E E E E E E E
--2-----------0------|--L------------------|--2-----------3-----|
-----------------0h--|--1p--0--------------|--------------------|
--------0-----0------|---------0-----------|--------0--------0--|
-----2-----2---------|------------2--------|-----0-----0--------|
---------------------|---------------3-----|--------------------|
--3------------------|------------------3--|--3-----------------|

E E E E E E E E E E E E E E E E E E
---------------------|--------------------|--------------------|
--3------------------|--1-----------0-----|--------------1--3--|
-----0---------------|--------0-----------|--0-----------------|
--------4p--0--------|-----2-----2-----2--|-----2--------------|
---------------2-----|--0-----------------|--------2-----------|
------------------3--|--------------------|-----------0--------|
E E E E E E E E E E E E E E E E E E
--2-----------3-----|--7------------------|--0-----------------|
--------------------|---------------------|--------------------|
--------0--------0--|-----0---------------|--------------------|
-----0-----0--------|--------4p--0--------|-----5-----5-----5--|
--------------------|---------------2-----|--3-----3-----3-----|
--3-----------------|------------------3--|--------------------|

E E E E E E E E E E E E E E E E E E
--8-----------7-----|--------------------|---------------------|
--------------------|--3--------------0--|--3p--0--------------|
--------------------|--------------0-----|---------0-----------|
-----5-----5-----5--|-----0-----0--------|------------0-----0--|
--3-----3-----3-----|--2-----2-----------|---------------2-----|
--------------------|--------------------|---------------------|

E E E E E E E E E E E E E E E E E E
--------------------|--0-----------0-----|--2-----------------|
--1--------0--1--3--|--------4-----------|--------------------|
--------------0-----|-----4--------------|--------------4-----|
-----2-----2--------|-----------2-----2--|-----4-----4-----4--|
--3-----3-----------|--------------3-----|--2-----2-----------|
--------------------|--------------------|--------------------|

E E E E E E Q E E Q Q Q Q Q Q Q
--L-----2--3--5--6--|--7-------5--7----|--3----5----7----|--10---------8----|
--------------------|-------0--0--0----|-------0----0----|--------7----7----|
--------------------|-------0--0--0----|-------0----0----|--------7----7----|
-----4--------------|------------------|-----------------|---0--------------|
--2-----2-----2-----|------------------|-----------------|------------------|
--------------------|--0---------------|--0--------------|------------------|

E E E E Q Q Q Q Q E E E E Q E E E E
--7--5--7----------|------------5----|--2-------3--2-----|-------0-----0--5--|
-------------------|--5--------------|-------3--------3--|----------0--------|
--------0--0--0----|-------5----5----|-------2-----2-----|-------0-----0-----|
--------0--0--0----|-------5----5----|--0----------------|-------2-----------|
-------------------|--3--------------|-------------------|--3----------------|
--3----------------|-----------------|-------------------|-------------------|

Q E E E E Q E E Q Q E E Q Q E E Q
--2----2--3--5--6--|--7-------5--7----|--3----5-----7----|--10----------12----|
-------3--3--3-----|-------0--0--0----|-------0--0--0----|--------7--7---7----|
-------2--2--2-----|-------0--0--0----|-------0--0--0----|--------7--7---7----|
--0----------------|------------------|------------------|---0----------------|
-------------------|------------------|------------------|--------------------|
-------------------|--0---------------|--0---------------|--------------------|

E E E E Q Q Q Q Q E E E E Q E E E E
--7--5--7----------|------------5----|--2-------3--2-----|----------------7--|
-------------------|-------5---------|-------3--------3--|--5-------3--5-----|
--------0--0--0----|-------5----5----|-------2-----2-----|-------5-----5-----|
--------0--0--0----|-------5----5----|--0----------------|-------5-----5-----|
-------------------|--3--------------|-------------------|--3----------------|
--3----------------|-----------------|-------------------|-------------------|

Q E E E E Q. E E E Q Q Q Q. E E E
--5-------3--2-----|--0---------------|--L--------------|------------------|
-------3--3-----3--|------------------|-----------------|--3---------------|
-------2--2--2-----|------------------|-----------------|------------------|
--0----------------|--2------2--2--2--|--2----2----2----|--0------0--0--0--|
-------------------|---------2--2--2--|--2----2----2----|---------0--0--0--|
-------------------|--0---------------|-----------------|------------------|

Q Q Q Q. E E E Q Q Q Q E E E E
-----------------|------------------|-----------------|-------------------|
-------1---------|--1---------------|-------0---------|-------0-----1-----|
------------2----|---------0--0--0--|--0----0----2----|--2----------------|
--0----0----0----|---------2--2--2--|--2----2----2----|-------------------|
--0----0----0----|--3---------------|-----------------|----------0--0--0--|
-----------------|------------------|-----------------|--2----------------|

^ Tempo ~ 152

Q Q Q H. E E E E E E E E E E E E
-----------------|---------------|--------------------|--------0--------7--|
-------0----1----|--0------------|--------------------|-----0-----7--9-----|
--2--------------|--1------------|--------------------|--1-----------------|
-----------------|--2------------|--------------2--4--|--------------------|
--0----0----0----|--2------------|-----------2--------|--------------------|
-----------------|---------------|--0--2--4-----------|--------------------|

E E E E E E E E E E E E E E E E
--12--7--------0-----------|--------------0--------7--|
---------9--7-----0--------|-----------0-----7--9-----|
---------------------1-----|--------1-----------------|
------------------------4--|--2--4--------------------|
---------------------------|--------------------------|
---------------------------|--------------------------|

E E E E E E E E E E E E E E E E
--12--7--------0-----------|--------------0--------7--|
---------9--7-----0--------|-----------0-----7--9-----|
---------------------1-----|--------1-----------------|
------------------------4--|--2--4--------------------|
---------------------------|--------------------------|
---------------------------|--------------------------|

E E E E E E E E E E E E E E E E
--12--7--------0-----------|--------------0--------7--|
---------9--7-----0--------|-----------0-----7--9-----|
---------------------1-----|--------1-----------------|
------------------------4--|--2--4--------------------|
---------------------------|--------------------------|
---------------------------|--------------------------|
NH
Q Q Q Q Q Q Q. E H H
--<>12----7--------------|--0-------------------|--------------------|
---------------9----7----|-------0--------------|--------------------|
-------------------------|----------------------|--------------------|
-------------------------|----------------------|--------------------|
-------------------------|-------------------2--|--L-----------------|
-----0-------------------|------------4---------|-----------0--------|

W
-------------------||
-------------------||
-------------------||
-------------------||
-------------------||
--L----------------||

Duration Legend
---------------
W - whole
H - half
Q - quarter
E - 8th
S - 16th
T - 32nd
X - 64th
. - note dotted
|-n-| - n-tuplets

Tablature Legend
----------------
L - tied note
x - dead note
g - grace note
(n) - ghost note
> - accentuded note
NH - natural harmonic
AH - artificial harmonic
TH - tapped harmonic
SH - semi harmonic
PH - pitch harmonic
h - hammer on
p - pull off
b - bend
S - shift slide
s - legato slide
/ - slide into from below or out of upwards
\ - slide into from above or out of downwards
~ - vibrato
W - wide vibrato
tr - trill
TP - tremolo picking
T - tapping
S - slap
P - pop
< - fade in
^ - brush up
v - brush down