You are on page 1of 2

5 Centimeters per Second - End Theme

Arranged for guitar by Bryan Franz


www.youtube.com/BryanFranzMusic

|--7-|-8--3--|-5-----7-|--8---10--8-|--8------------|-0-------3-|-----------|
|----|----3--|-5-------|-------8----|--6---6----8-6-|-1--1--3---|-1-----1-3-|
|----|-9--4--|-5-------|--9-9-------|--5------------|-----0-0---|-----2-----|
|----|-7--2--|-3-------|--7---------|----7----------|---2-----0-|---2-------|
|----|-------|---------|-------7----|---------------|-3-----2---|-0---------|
|----|-------|---------|------------|---------------|-----------|-----------|

|-0-------|-----------|------------|--------------|
|-1---3---|-1---1---0-|-1----------|------------0-|
|-2---4-5-|---0----2--|---2---0----|-2---2-----2--|
|---------|-2---------|--2-2--0----|-2-2----------|
|---------|-----------|-0-----2-2--|-0------------|
|-1---3---|-----------|-------3--3-|-1------------|

|------------|---------------|------------|---------------|
|-1--1-3--1--|-1------1-3-1--|-0------3---|-----------1-3-|
|---2--0-----|-------2-------|---0--2-----|-0-------------|
|--2---------|------3--------|------------|-0h2-----------|
|-0----------|-----3---------|--2---3-----|----3-2-0------|
|------0-----|-1-------------|-0----------|-0-------3-----|

Interlude
|-0-------|------------|-----3---|-----3---|---------|-----------|----------|
|-1---3---|-1----------|-3---3---|-3---3---|-3----0--|-1p0-------|----------|
|-2---4-5-|-0--------0-|-0-------|-0-------|-0-------|-----2---2-|-0---0----|
|-------5-|-2----------|---0-----|---0-----|---------|-----2-----|-0--------|
|---------|-3----------|---------|---------|-2-------|-0---------|---2------|
|-1---3---|------------|-3-------|-3-------|-3-------|-----------|-3--------|

|---------|-----------|-0-------|
|-----1---|-3--1--3---|-1-------|
|-2-------|-0---------|-0-------|
|-2-------|----2--0---|---------|
|-0-------|-2--0------|-3-------|
|---------|-------3---|---------|

|-----3---|-----3---|---------|-----------|----------|
|-3---3---|-3---3---|-3----0--|-1p0-------|----------|
|-0-------|-0-------|-0-------|-----2---2-|-0---0----|
|---0-----|---0-----|---0-----|-----2-----|-----0----|
|---------|---------|-2-------|-0---------|---2------|
|-3-------|-3-------|-3-------|-----------|-3--------|

|---------|----------|-----------0----|----------------|--------------10--|
|---1-----|-3--1--3--|-1------1--1--5-|-5--------------|-8-----5-8-----8--|
|-2-2-----|-0-0------|-2---2--------5-|-5-----5--7---5-|-----5------------|
|-2-------|----------|-2--------------|-7--7-----------|-7-7--------------|
|-0-------|-2--------|-0--------------|-8--------------|-5-------------7--|
|---0-----|----------|----------------|-5--------------|------------------|
Main Theme again, faster
|--8--3--|-5-----7-|-8-----10--8-|--8------------|-0-------3-|-----------|
|-----3--|-5-------|--------8----|--6-6------8-6-|-1--1--3---|-1-----1-3-|
|--9--4--|-5-------|-9--9--------|--5---5h7------|-----0-0---|-----2-----|
|--7--2--|-3-------|-7-7-7-------|-----------5---|---2-------|---2-------|
|--------|---------|--------7----|---------------|-3-----2---|-0---------|
|--------|---------|-------------|---------------|-----------|-----------|

|-0-----------|-----------|------------|--------------|
|-1---1---3---|-1---1p0-0-|-1----------|------------0-|
|-2-----2-4-5-|---0----2--|---2---0----|-2----2-0-2---|
|-----------5-|-2---------|--2-2--0----|-2---2--------|
|---0---------|-----------|-0-----2-2--|-0--0---------|
|-1-------3---|-----3-----|-------3--3-|-1-1----------|

|-------------|-----------------|-----------|-----------------|
|-1--1-3--1-0-|-------------3-1-|-0------3--|-1-----------1-3-|
|---2--0------|-2-----2---------|---0--2----|---2-------------|
|--2----------|-----3-----------|-----------|-----2-----2-----|
|-0-----------|---3-------3-----|--2-2-3----|-0-----0---------|
|------0------|-1-------1---1---|-0---------|---------0-------|

|-0-------|---------|
|-1---3---|-1-------|
|-2---4-5-|-0-------|
|---------|-2-------|
|---------|-3-------|
|-1---3---|---------|

Ending Octave Harmonics


|-8/10-12---------|-10--8---8-------|-<8>-<10>-<12>---|-<10>-<8>-<8>----|
|-----------------|-0-------8-------|-----------------|-----------------|
|-----------------|-0-------9-------|-----------------|-----------------|
|----------10-----|---------10------|-----------------|-----------------|
|------8----------|-----------------|-----------------|-----------------|
|-----------------|-7---------------|-----------------|-----------------|