You are on page 1of 2

Kool Thing

Intro:

2x Guitars + Bass + Quiet drums

e-----------------
B-----------------
G----------------- x8
D--4-4-4-4-4-4-4-4
A--4-4-4-4-4-4-4-4
E--2-2-2-2-2-2-2-2

Drums louder. Add high guitars (Tom and Rob):

e--------------------------------------------------
B--------------------------------------------------
G--11-11-11-11-11-11-11-11-11-14-14-14-16-16-16-16- x12
D--11-11-11-11-11-11-11-11-11-14-14-14-16-16-16-16-
A--9--9--9--9--9--9--9--9--9--12-12-12-14-14-14-14-
E--------------------------------------------------

Others:

e---------------------------------
B---------------------------------
G--------------------------------- x12
D--4-4-4-4-4-4-4-4-4-7-7-7-9-9-9-9
A--4-4-4-4-4-4-4-4-4-7-7-7-9-9-9-9
E--2-2-2-2-2-2-2-2-2-5-5-5-7-7-7-7

Lead guitar after 4 bars:

e---------------------------------
B---------------------------------
G---------------------------------
D------11--1111----11--11--9b10b9- x4
A------x---x-x-----x---x----------
E------9---9-9-----9---9----------

e---------------------7777777778888888889---
B-------------------------------------------
G-------------------------------------------
D------10-10-10-7--------------------------- (bend 10 1/4 up) x4
A-------------------------------------------
E-------------------------------------------

Verse:

Low guitars + lead 4 times through


Low guitars + high guitar + lead 4 times through

Repeat

Solo - Intro followed by 4x chord sequence


Verse again x2

Outro - Crash out on F#