You are on page 1of 2

As Cores - Cine

Tom: G
(intro)

E|--15-15-10-10-14-14-7-7----------|
B|---------------------------------|
G|---------------------------------|
D|---------------------------------|
A|---------------------------------|
E|---------------------------------|

(caso prefira, ao invs de fazer o dedilhado com Em7 e C9 faa seguinte dedilhado)

E|-----------------------------------------------------------|
B|--------3-------3---------------3------------3-------------|
G|------0---0---0---0---0-------0---0--------0---0---0-------|
D|--0h4-------4-------4-------4-------4----4-------4---------|
A|--------------------------2------------3-------------------|
E|-----------------------------------------------------------|

Em7
O vento bate a porta e no me engana mais
C9
A decorao branca no me satisfaz
Em7 C9
Eu queria estar no seu lugar, mas no estou
Em7 C9
Acham que enlouqueci, perguntam de voc pra mim
Em7 C9
Eu tento dizer que est tudo bem

G D/F# Em7 C9
Estou igual vivendo o irreal
G C9 G
Perguntei do final pras flores, as flores so partes do total
D/F# Em7 G D/F# Em7 C9
J se tornou banal, me sentir mal, me sinto mal

C9 Em7
As cores l fora, me disseram pra continuar
G D4 D
Elas me disseram pra continuar (eu j superei)
C9 Em7
Mas eu queria suas mos nas minhas revelar as fotos
D C9 D D4
Que tiramos e ningum sabia da sua partida (Da sua partida)

Em7 C9
E se foi se jogou num mar aberto de iluses
Em7
E as ondas te acertaram como eu planejei
C9 Em7
Eu exagerei, um sentimento to forte
C9
Eu sei que tive sorte
Em7 C9
Aquilo no era o que eu sou, agora eu sei muito bem quem sou
Em7
E o que me tornou
G D/F# Em7 C9
To igual vivendo o irreal
G C9 G
Perguntei do final pras flores, as flores so partes do total
D/F# Em7 G D/F# Em7 C9
J se tornou banal, me sentir mal, me sinto mal

C9 Em7
As cores l fora, me disseram pra continuar
G D4 D
Elas me disseram pra continuar (eu j superei)
C9 Em7
Mas eu queria suas mos nas minhas revelar as fotos
D C9 D D4
Que tiramos e ningum sabia da sua partida (Da sua partida)

C9 Em7
Tudo que eu penso parece que voc
G D/F#
Eu tento, luto, veno, mas no vou esquecer

C9 Em7 G
Tudo que eu falei te fazia chorar
D/F#
No te ouvia falar
C9 Em7
S te peo perdo
G D/F# C9
Hoje canto pra que oua dos cus que eu no, duvidei do amor

Em7 C9
To igual, vivendo o irreal (2x)

Sou o igual, vivendo o irreal (2x)