You are on page 1of 3

Zero no Tsukaima Futatsuki no Kishi OP - I Say Yes guitar (solo)

Song : I Say Yes


Artist : ICHICO
Anime : OP - Zero no Tsukaima Futatsuki no Kishi OP
Play : G.Capo 45 G.Capo = (Glider/The Rolling Capo)
Tuning : Drop D
Arranged for solo-guitar by animelodies1

A
Capo 4

|=1=2=3=4=5=6=7=8=|=1=2=3=4=5=6=7=8=|=1=2=3=4=5=6=7=8=|=1=2=3=4=5=6=7=8=|
|-------------0-0-|->-/-------------|-----------------|-----------------|
|-1-------1-3-----|---3-------3-----|-3-------3-5-6-6-|->-5-------5-----|
|-0---------------|-------2---------|-4---------------|---5---7---/-----|
|-2---------------|-----------------|-0---------------|-----5->->->-----|
|-----------------|-----------------|-----------------|-0---------------|
|-2---------------|-3---------------|-5---------------|-----------------|

|=1=2=3=4=5=6=7=8=|=1=2=3=4=5=6=7=8=|=1=2=3=4=5=6=7=8=|=1=2=3=4=5=6=7=8=|
|-------------0-0-|->---/-----------|-----------------|---------3-------|
|-1-------1-3-----|-----3-----3---1-|-1-----3-3->->->-|->->->-3---3-----|
|-0---------------|-------2---------|-------------0-2-|-4---4-------4---|
|-----------------|-----------------|-----------0-----|---0-----------0-|
|-----------------|-----------------|-----------------|-----------------|
|-2---------------|-3---------------|-5---------------|-5---------------|

|=1=2=3=4=5=6=7=8=|=1=2=3=4=5=6=7=8=|=1=2=3=4=5=6=7=8=|=1=2=3=4=5=6=7=8=|
|-------------0-0-|->-/-------------|-----------------|---0-------0-----|
|-1-------1-3-----|---3-------3-----|-3-------3-5-6-6-|->-/-0-----------|
|-0---0-----------|-------2---------|-----0---4->->->-|-/-----7---------|
|---2---2---------|-----3-----------|---0---0---------|---------6-------|
|-----------------|-----------------|-----------------|-----------------|
|-2---------------|-3---------------|-5---------------|-6---------------|

|=1=2=3=4=5=6=7=8=|=1=2=3=4=5=6=7=8=|=1=2=3=4=5=6=7=8=|=1=2=3=4=5==6=7=8=|
|---------------3-|->-------------/-|-----0-----------|------------------|
|-1-------1-0-1---|-----1-1-----1-3-|-6-------------1-|->------------1---|
|-----2-----------|-----2-----------|-------5---4-----|-----0------0-----|
|---2---2---------|---3-------3-----|---0-------------|---2---0-h2-------|
|-0---------------|-----------------|-----------------|-3----------------|
|-----------------|-3---------------|-5---------------|------------------|

B
T.H.
|=1=2=3=4=5=6=7=8=|=1=2=3=4=5=6=7=8=|=1=2=3=4=5===6===7=8=|=1=2=3=4=5==6=7=8=|
|-----------3---3-|->---------------|-------------------3-|->----------------|
|-1---0-1---------|---------1---0---|-1---0-1-------------|-------1-p0-------|
|-2---------------|-----2-----------|-0---------2(14)-----|-----0------2-0---|
|-3-3-----3-------|---3---3---3---3-|---2-----2-----------|---2------------2-|
|-----------------|-----------------|---------------------|------------------|
|-0---------------|-0---------------|-2-------------------|-2----------------|

|=1=2=3=4=5=6=7=8=|=1=2=3=4=5=6=7=8=|=1=2=3=4=5=6=7=8=|=1=2=3=4=5=6=7=8=|
|-3---1-1---------|-----------------|---------1-0-1-3-|->-------/-------|
|-1---------4---4-|---3---1---3-----|-3---------------|-------0-/-------|
|---1-----1-------|-----1-----------|-----2---------5-|->---5-0-/-------|
|-----------------|-----------------|---3---3---------|---0-----/-------|
|-----------------|-----------------|-----------------|-----------------|
|-3---------------|-3---------------|-0-------------5-|->-------/-------|

(1)
Zero no Tsukaima Futatsuki no Kishi OP - I Say Yes guitar (solo)

Chorus
Capo 5
T.H.
|=1=2=3=4=5===6===7=8=|=1=2=3=4=5=6=7=8=|=1=2=3=4=5=6=7=8=|=1=2=3=4=5=6=7=8=|
|-------------------5-|->->->->-5-3-2-3-|-5---------3---2-|->-------2-3-2-0-|
|-----2-3---0(12)-----|-------2---------|-----3-3->-----/-|-----3-----------|
|-4----------->-------|-----2-----------|---0----->-----/-|---2---2---------|
|---4-----4--->-------|---2-------------|-----------------|-0---------------|
|-2----------->-------|-----------------|---------0-------|-------------4---|
|---------------------|-4---------------|-5---------------|-----------------|

|=1=2=3=4=5=6=7=8=|=1=2=3=4=5=6=7=8=|=1=2=3=4=5=6=7=8=|=1=2=3=4=5=6=7=8=|
|-----2-5->->->->-|->->-2-5->->->-/-|-3---2-0---------|-----------------|
|-3-------------3-|-3-------------3-|-2---------3---3-|->->->->->->->->-|
|-------------2---|-------------0---|---2-----------0-|-------0-/-------|
|---4-------4-----|---0-------0-----|-----------------|-----0---4-0---0-|
|-2---------------|-----------------|-0---------------|---0---------0---|
|-----------------|-5---------------|-----------------|-0---------------|

tp
|=1=2=3=4=5==6===7=8=|=1=2=3=4=5=6=7=8=|=1=2=3=4=5=6=7=8=|=1=2=3=4=5=6=7=8=|
|------------------5-|->->->->-5-3-2-3-|-5---------3---2-|->-------2-3-2-0-|
|->--2-3----(12)-----|-------2---------|-----3-3->-----/-|-----3-----------|
|-4---------->-------|-----2-----------|---0----->-----/-|---2---2---------|
|---4-----4-->-------|---2-------------|-----------------|-0---------------|
|-2---------->-------|-----------------|---------0-------|-------------4---|
|--------------------|-4---------------|-5---------------|-----------------|


|=1=2=3=4=5=6=7=8=|=1=2=3=4=5=6=7=8=|=1=2=3=4=5=6=7==8=|=1=2=3=4=5=6=7=8=|
|-----2-5->->->->-|->->-2-5->->->-/-|-3---2-0----------|-0---------------|
|-3-------------3-|-3-------------3-|-2----------------|-2-------3---2---|
|-------------2---|-------------0---|---2---------2-h4-|-2---------------|
|---4-------4-----|---0-------0-----|-----------2------|-2---------------|
|-2---------------|-----------------|-0----------------|-0---------------|
|-----------------|-5---------------|------------------|-----------------|

End.

|=1=2=3=4=5=6=7=8=|=1=2=3=4=5=6=7=8=|=1=2=3=4=5=6=7=8=|=1=2=3=4=5=6=7=8=|
|-----------------|-----------------|-------------2-0-|-----------------|
|-3->->->->->->->-|->->->->-3---2---|-----------0-----|-3-----3-2-------|
|-----0---2---4---|-2---2-----------|-2---0---0-------|-----2---2-------|
|---0---0---0---0-|---0---0---0---0-|---0---4---------|---2-----2-------|
|-----------------|-----------------|-----------------|-0-------0-------|
|-5---------------|-4---------------|-2---------------|-----------------|


|=1=2=3=4=5=6=7=8=|=1=2=3=4=5=6=7=8=|
|-------------0-3-|-2---------------|
|-3---------3-----|-3---------------|
|-0-------0-------|-2---------------|
|-----0-2->-------|-/---------------|
|---0->-----------|->---------------|
|-0---------------|-0---------------|

(2)
Zero no Tsukaima Futatsuki no Kishi OP - I Say Yes guitar (solo)

> = Prolong -
/ = Staccato -
s = Slide -
h = Hammer on -
p = Pull off -
b = Bending -
X = Mute -
N.H. = Natural Harmonics -
T.H. = Touch Harmonics -
P.M. = Palm Mute -
tp = Tapping -
= Down-stroke
= Up-stroke

(3)