You are on page 1of 6

ILYSB - TABS

Arranged by Jc Apalla

Standard tuning
1st Capo

p= pull-off
h=hammer
/ or \ = slide

Verse 1
E|--
0----------------------------------------------------------------------------------
-----|
B|--0--3/5--5p4-------------------5--5\4--
2-------------------------------------------------|
G|--1--2/4--4----6--4---6------4-------------4---
4/6----------------------------------------|
D|--2-------------------6------4-----------------------4h6--4h6--4--
2-----------------------|
A|--2-------------------4--4---2-----2-----------0----------
0-------------------------------|
E|--0-------
0-------------------------------------------------------------------------------|

E|--
0----------------------------------------------------------------------------------
---|
B|--0--3/5--5p4-----------------------5--5\4--
2-------------------------------------------|
G|--1--2/4--4--------6--4---6------4-------------4---
4/6----------------------------------|
D|--2-----------------------6------4-----------------------6p4--
2-------------------------|
A|--2-----------------------4--4---2-----2-----------0----------
0-------------------------|
E|--0-------
0-----------------------------------------------------------------------------|

Pre-Chorus
E|---------------------------------------------------------------------------------
--------------------|
B|---------------------------------------------------------------------------------
--------------------|
G|--------4--4---4-----------3/4--
4--------------------------------------------------------------------|
D|--2-2-------------2---2-2------------2---4/6--6-----6--6--6--4-----4--4--
2---------------------------|
A|--------2-----2------------3/4----4-----------------------------2-----
2------------------------------|
E|-------------------------------------------------5-----
5---------------------------------------------|

E|---------------------------------------------------------------------------------
------------------|
B|---------------------------------------------------------------------------------
------------------|
G|-------3/4--4-----4-----------3/4--
4---------------------------------------------------------------|
D|--2-2----------------2---2-2------------2--4/6--6-----6--6--6--6/7\6--4--4--4--
2-------------------|
A|-------2/------2--------------3/4-----4-------------------------------2-----
2----------------------|
E|---------------------------------------------------5-----
5-----------------------------------------|

Chorus 1
E|-----0-----0h2--2/44-----0-----0h2-0-0------5-----2h4-2-0------5-----2h4-2-
0--------------|
B|--------
2---------------------------------------------------------------------------------|
G|---------------------------4-------------------4------------------
2-----------------------|
D|---------------------------------------------------------------------------------
---------|
A|----------------------4------------------2------------------
0-----------------------------|
E|--
0----------------------------------------------------------------------------------
-----|

E|-----0-----0h2--2/44-----0-----0h2-0-0------5-----2h4-2-0------5-----2h4-2-
0-----------------|
B|--------
2----------------------------------------------------------------------------------
--|
G|---------------------------4-------------------4------------------
2--------------------------|
D|---------------------------------------------------------------------------------
------------|
A|----------------------4------------------2------------------
0--------------------------------|
E|--
0----------------------------------------------------------------------------------
--------|

Verse 2
E|--
0----------------------------------------------------------------------------------
----|
B|--0--3/5--5p4-------------------5--5\4--
2------------------------------------------------|
G|--1--2/4--4----6--4---6------4-------------4---
4/6---------------------------------------|
D|--2-------------------6------4-----------------------4h6--4h6--4--
2----------------------|
A|--2-------------------4--4---2-----2-----------0----------
0------------------------------|
E|--0-------
0------------------------------------------------------------------------------|

E|--
0----------------------------------------------------------------------------------
------|
B|--0--3/5--5p4-----------------------5--5\4--
2----------------------------------------------|
G|--1--2/4--4--------6--4---6------4-------------4---
4/6-------------------------------------|
D|--2-----------------------6------4-----------------------6p4--
2----------------------------|
A|--2-----------------------4--4---2-----2-----------0----------
0----------------------------|
E|--0-------
0--------------------------------------------------------------------------------|

Pre-Chorus
E|---------------------------------------------------------------------------------
------------------|
B|---------------------------------------------------------------------------------
------------------|
G|--------4--4---4-----------3/4--
4------------------------------------------------------------------|
D|--2-2-------------2---2-2------------2---4/6--6-----6--6--6--4-----4--4--
2-------------------------|
A|--------2-----2------------3/4----4-----------------------------2-----
2----------------------------|
E|-------------------------------------------------5-----
5-------------------------------------------|

E|---------------------------------------------------------------------------------
-------------------|
B|---------------------------------------------------------------------------------
-------------------|
G|-------3/4--4-----4-----------3/4--
4----------------------------------------------------------------|
D|--2-2----------------2---2-2------------2--4/6--6-----6--6--6--6/7\6--4--4--4--
2--------------------|
A|-------2/------2--------------3/4-----4-------------------------------2-----
2-----------------------|
E|---------------------------------------------------5-----
5------------------------------------------|

Chorus
E|----0-----0h2--2/4-4------0-----0h2--0-0------5-----------2h4-2-0------
5-----------2h4-2-0----------|
B|-------2-----------------------------------------------2------------------------
2-------------------|
G|-----------------------------4----------------------4------------------------
2----------------------|
D|---------------------------------------------------------------------------------
-------------------|
A|-----------------------4-------------------2-----2------------------------
0-------------------------|
E|--0-----------------------------------------------------------------
0-------------------------------|

E|----0-----0h2--2/4-4------0-----0h2--0-0------5-----------2h4-2-0------
5-----------2h4-2-0---------|
B|-------2-----------------------------------------------2------------------------
2------------------|
G|-----------------------------4----------------------4------------------------
2---------------------|
D|---------------------------------------------------------------------------------
------------------|
A|-----------------------4-------------------2-----2------------------------
0------------------------|
E|--0-----------------------------------------------------------------
0------------------------------|

E|----0-----0h2--2/4-4------0-----0h2--0-0------5-----------2h4-2-0------
5-----------2h4-2-0---------|
B|-------2-----------------------------------------------2------------------------
2------------------|
G|-----------------------------4----------------------4------------------------
2---------------------|
D|---------------------------------------------------------------------------------
------------------|
A|-----------------------4-------------------2-----2------------------------
0------------------------|
E|--0-----------------------------------------------------------------
0------------------------------|

Instrumental
E|---------0---------0-0-0-----------0---------0-0-2----------0--------0-0-
0-----------0---------0-0-2/4-----|
B|----0h2-----2p0h2-------------0h2-----2p0h2-------------0h2----2p0h2------------
0h2-----2p0h2--------------|
G|----1-------------------------0-------------------------0-----------------------
2--------------------------|
D|---------------------------------------------------------------------------------
--------------------------|
A|---------------------------4-----------------4-------2---------------2-------
0-----------------0-----------|
E|--0----------------
0----------------------------------------------------------------------------------
-----|

E|---------0---------0-0-0-----------0---------0-0-2----------0--------0-0-
0-----------0---------0-0-2----|
B|----0h2-----2p0h2-------------0h2-----2p0h2-------------0h2----2p0h2------------
0h2-----2p0h2-----------|
G|----1-------------------------0-------------------------0-----------------------
2-----------------------|
D|---------------------------------------------------------------------------------
-----------------------|
A|---------------------------4-----------------4-------2---------------2-------
0-----------------0--------|
E|--0----------------
0----------------------------------------------------------------------------------
--|

Pre- Chorus
E|---------------------------------------------------------------------------------
-------------------|
B|------------------------------------------------xTx----------
xTx------------------------------------|
G|---4--4---------------3/4--4--------------------xAx----------
xAx------------------------------------|
D|-------------2---2-2------------2---4/6--6------xPx--6--5----
xPx------------------------------------|
A|---2-----2------------3/4----4-----------------------------
0----------------------------------------|
E|---------------------------------------------
5------------------------------------------------------|

E|---------------------------------------------------------------------------------
-------------------|
B|---------------------------------------------------------------------------------
-------------------|
G|-------3/4--4-----------------3/4--
4----------------------------------------------------------------|
D|----2----------------2-----2------------2--4/6--6-----6--6--6--6/7\6--4--4--4--
2--------------------|
A|-------2/------2--------------3/4-----4-------------------------------2-----
2-----------------------|
E|---------------------------------------------------5-----
5------------------------------------------|

Chorus
E|----0-----0h2--2/4-4------0-----0h2--0-0------5-----------2h4-2-0------
5-----------2h4-2-0--------------|
B|-------2-----------------------------------------------2------------------------
2-----------------------|
G|-----------------------------4----------------------4------------------------
2--------------------------|
D|---------------------------------------------------------------------------------
-----------------------|
A|-----------------------4-------------------2-----2------------------------
0-----------------------------|
E|--0-----------------------------------------------------------------
0-----------------------------------|

E|----0-----0h2--2/4-4------0-----0h2--0-0------5-----------2h4-2-0------
5-----------2h4-2-0------------------|
B|-------2-----------------------------------------------2------------------------
2---------------------------|
G|-----------------------------4----------------------4------------------------
2------------------------------|
D|---------------------------------------------------------------------------------
---------------------------|
A|-----------------------4-------------------2-----2------------------------
0---------------------------------|
E|--0-----------------------------------------------------------------
0---------------------------------------|

E|----------0---------0-0-0-----------0---------0-0-2------5-----------2h4-2-
0-----------2---------0-0-2/4----|
B|-----0h2-----2p0h2-------------0h2-----2p0h2----------------------
2---------------0h2-----2p0h2-------------|
G|-----1-------------------------0-------------------------------
4------------------2-------------------------|
D|---------------------------------------------------------------------------------
---------------------------|
A|----------------------------4---------------------4---2-----2------------------
0----------------------------|
E|--0-----------------
0----------------------------------------------------------------------------------
-----|

E|-----0-----0h2-0------0-----0h2-0------0-----0h2-0------5-----------2h4-2-0--
0----------------------------|
B|--------2----------------2----------------2----------------------2-----------
0----------------------------|
G|--------------------------------------------------------------2--------------
1----------------------------|
D|-----------------------------------------------------------------------------
2----------------------------|
A|-------------------4----------------2----------------0-----0-----------------
2----------------------------|
E|--0--------------------------------------------------------------------------
0----------------------------|

ENJOY!!!

Please like, share and subscribe. :)