You are on page 1of 4

Cold Day In The Sun Chords (ver 3) by Foo

Fighters
Artist: Foo Fighters
Song: Cold Day In The Sun

Cold Day in The Sun


Foo Fighters

[Intro]
Cadd9 D/F# G
Cadd9 D/F# G
Cadd9 D/F# G F C D/F# G

[Verse 1]
Cadd9 D/F# G
Took the high dive into your brain
Cadd9 D/F# G
And you make your lonely calls
Cadd9 D/F# G F C D/F# G
You just might wear your welcome out if you don't let it go.

Cadd9 D/F# G
nothing that you couldn't say
Cadd9 D/F# G
Cause you said it all before
Cadd9 D/F# G F C D/F# G
Think it's time you walk this lonely road all on your own

[Chorus]
Am D Dsus2 D Dsus4 D
It's your cold day in the sun
Am
Looks like your bleeding heart
D Dsus2 D Dsus4 D
Has already won

[Verse 2]
Cadd9 D/F# G
Wish I could take it away
Cadd9 D/F# G
And save you from yourself
Cadd9 D/F# G F C D/F# G
You can get so lost inside your head like no one else

Cadd9 D/F# G
Looking for someone to blame
Cadd9 D/F# G
Blame me all along
Cadd9 D/F# G F C D/F# G
You'll take the heat, but you would never take the fall

[Chorus]
Am D Dsus2 D Dsus4 D
It's your cold day in the sun
Am
Looks like your bleeding heart
D Dsus2 D Dsus4 D
Has already won

[Bridge]
G
You're so afraid
F
That you are the only one
Em
That you are the only one
D
You know

G
Don't be afraid
F
Cause your not the only one
Em
You're not the only one
D C D
I know

[Solo]
Cadd9 D/F# G

Cadd9 D/F# G
Cadd9 D/F# G F C D/F# G

[Chorus]
Am D Dsus2 D Dsus4 D
It's your cold day in the sun
Am
Looks like your bleeding heart
D Dsus2 D Dsus4 D
Has already won

Am D Dsus2 D Dsus4 D
It's your cold day in the sun
Am
Looks like you're bleeding heart
D Dsus2 D Dsus4 D
Has already won

END

+--------------------------------------------------------------------------+
| This file is the author's own work and represents their interpretation |
| of the song. You may only use this file for private study, scholarship, |
| or research. |
+--------------------------------------------------------------------------+

Ultimate-Guitar.Com 2017
Show/hide chords diagrams

Add more chord diagrams to the list:

Em
Dsus4
Dsus2
D
Am
C
F
G
D/F#
Cadd9

Em
x
E |---|---|---|---|---| o
B |---|---|---|---|---| o
G |---|---|---|---|---| o
D |---|-2-|---|---|---| o
A |---|-1-|---|---|---| o
E |---|---|---|---|---| o

variations

Dsus4
x
E |---|---|-X-|---|---| o
B |---|---|-X-|---|---| o
G |---|-1-|---|---|---| o
D |---|---|---|---|---| o
A |---|---|---|---|---| x
E |---|---|---|---|---| x

variations

Dsus2
x
E |---|---|---|---|---| o
B |---|---|-2-|---|---| o
G |---|-1-|---|---|---| o
D |---|---|---|---|---| o
A |---|---|---|---|---| x
E |---|---|---|---|---| x

variations

D
x
E |---|-2-|---|---|---| o
B |---|---|-3-|---|---| o
G |---|-1-|---|---|---| o
D |---|---|---|---|---| o
A |---|---|---|---|---| x
E |---|---|---|---|---| x

variations

Am
x
E |---|---|---|---|---| o
B |-1-|---|---|---|---| o
G |---|-3-|---|---|---| o
D |---|-2-|---|---|---| o
A |---|---|---|---|---| o
E |---|---|---|---|---| x

variations

C
x
E |---|---|---|---|---| o
B |-1-|---|---|---|---| o
G |---|---|---|---|---| o
D |---|-2-|---|---|---| o
A |---|---|-3-|---|---| o
E |---|---|---|---|---| x

variations

F
x
E |-X-|---|---|---|---| o
B |-X-|---|---|---|---| o
G |-X-|-2-|---|---|---| o
D |-X-|---|-4-|---|---| o
A |-X-|---|-3-|---|---| o
E |-X-|---|---|---|---| o

variations

G
x
E |---|---|-3-|---|---| o
B |---|---|---|---|---| o
G |---|---|---|---|---| o
D |---|---|---|---|---| o
A |---|-1-|---|---|---| o
E |---|---|-2-|---|---| o

variations

D/F#
x
E |-X-|---|---|---|---| o
B |-X-|-2-|---|---|---| o
G |-X-|---|---|---|---| o
D |-X-|---|-3-|---|---| o
A |-X-|---|---|-4-|---| o
E |-X-|---|---|---|---| o
2 fr.
variations

Cadd9
x
E |---|---|---|---|---| o
B |---|---|-3-|---|---| o
G |---|---|---|---|---| o
D |---|-1-|---|---|---| o
A |---|---|-2-|---|---| o
E |---|---|---|---|---| x

variations
Print