You are on page 1of 1

Tablature for Skinny Love

[Intro licks - Albumversion]

C C C
|-2-4-2---2-4-2-0-| |-7-9-7\--2-4-2-0-| |-----0-0-0---0-0-|
|-2-4-2---2-4-2-0-| |-7-9-7\--2-4-2-0-| |-----5-5-5---4(2)|
|-0-0-0---0-0-0-0-| |-0-0-0---0-0-0-0-| |-----0-0-0---0-0-|
1 |-0-0-0---0-0-0-0-| 2 |-0-0-0---0-0-0-0-| 3 |-----0-0-0---0-0-|
|-----------------| |-----------------| |-----------------|
|-----------------| |-----------------| |-----------------|
D U D * D U D U D U D * D U D U * * D U D * D U

[Intro licks - Liveversions]

C C C Gadd4/D
|-2-4-2-0-2-4-2-0-| |-7-9-7---2-4-2-0-| |-----0-0-0-0-0-0-|---|
|-2-4-2-0-2-4-2-0-| |-7-9-7---2-4-2-0-| |-----5-5-5-5-4-0-|---|
|-0-0-0-0-0-0-0-0-| |-0-0-0---0-0-0-0-| |-----0-0-0-0-0-0-|/7-|
1 |-0-0-0-0-0-0-0-0-| 2 |-0-0-0---0-0-0-0-| 3 |-----0-0-0-0-0-0-|/7-|
|-----------------| |-----------------| |-----------------|/7-|
|-----------------| |-----------------| |-----------------|---|
D U D U D U D U D U D * D U D U * * D U D U D U D

[Verse 1 lick] [Verse 3 licks]

C6 C C
|-----------------| |-0h2-2-----0-0-0-| |-----0---0---0-0-|
|-----------------| |-0---0-----0-0-0-| |-----5---5---4(2)|
|-----------------| |-0---0-----0-0-0-| |-----0---0---0-0-|
|-3p0-------------| 1 |-0---0-----0-0-0-| 2 |-----0---0---0-0-|
|-----7p0-5\--0---| |-0---------------| |-----------------|
|-----------------| |-0---------------| |-----------------|
D * D * * U D U * * D * D * D U

[Outro licks]

C C C
|-2-4-2-0-2-4-2-0-| |-7-9-7\--2-4-2-0-| |-----0-0-0---0-0-|
|-2-4-2-0-2-4-2-0-| |-7-9-7\--2-4-2-0-| |-----5-5-5---4(2)|
|-0-0-0-0-0-0-0-0-| |-0-0-0---0-0-0-0-| |-----0-0-0---0-0-|
1 |-0-0-0-0-0-0-0-0-| 2 |-0-0-0---0-0-0-0-| 3 |-----0-0-0---0-0-|
|-----------------| |-----------------| |-----------------|
|-----------------| |-----------------| |-----------------|
D U D U D U D U D U D * D U D U * * D U D * D U

Transcribed by Robert from Astlessons