You are on page 1of 29

HALSEY SORRY [Intro]

C Am Em G D

[Verse]
C
I've missed your calls for months it seems
Am
Don't realize how mean I can be
Em G D
Cause I can sometimes treat the people that I love like jewelry
C
Cause I can change my mind each day
Am
I didn't mean to try you on
Em
But I still know your birthday
D
And your mother's favorite song

[Chorus]
Am
So I'm sorry to my unknown lover
C Em
Sorry that I can't believe that anybody ever really
G
Starts to fall in love with me
Am
Sorry to my unknown lover
C
Sorry I could be so blind
Em
Didn't mean to leave you
Em G
And all of the things that we had behind
Am C
Ooh
C Em
Ooh
Em G
Ooh

[Verse 2]
C
I run away when things are good
Am
And never really understood
Em
The way you laid your eyes on me
G D
In ways that no one ever could
C
And so it seems I broke your heart
Am
My ignorance has struck again
Em
I failed to see it from the start
G D
And tore you open 'til the end

[Chorus]
Am
And I'm sorry to my unknown lover
C Em
Sorry that I can't believe that anybody ever really
G
Starts to fall in love with me
Am
Sorry to my unknown lover
C
Sorry I could be so blind
Em
Didn't mean to leave you
G
And all of the things that we had behind
[Bridge]
Am
And someone will love you
C
Someone will love you
Em
Someone will love you
G
But someone isn't me
Am
Someone will love you
C
Someone will love you
Em
Someone will love you
D
But someone isn't me

[Chorus]
Am
Sorry to my unknown lover
C Em
Sorry that I can't believe that anybody ever really
G
Starts to fall in love with me
Am
Sorry to my unknown lover
C
Sorry I could be so blind
Em
Didn't mean to leave you
G
And all of the things that we had behind

[Outro]
Am
And someone will love you
C
Someone will love you
Em
Someone will love you
G
But someone isn't me
Am
And someone will love you
C
Someone will love you
Em
Someone will love you
D G
But someone isn't me
Halsey "100 Letters"

Standard tuning. Capo 2nd fret.


[Intro]
Em

[Verse 1]
CM D6
How can Midas put his hands on me again?
G6 Bsus4
He said "one day I'd realize why I don't have any friends"
CM D6
I find myself alone at night, unless I'm havin' sex
Em Em7
But he can make me golden if I just showed some respect

[Refrain]
CM D6
But I don't let him touch me anymore
G6 Bsus4
I said "I'm not something to butter up and taste when you get bored
CM D6
'Cause I have spent too many nights on dirty bathroom floors
Em Em7
To find some peace and quiet right behind a wooden door"

[Pre-Chorus]
Em
He said "please don't go away"
Em
He said "please don't go away"
Em
I said "it's too late"
Em
I said "it's too late"
Em
He said "please don't go away"
Em
He said "please don't go away"
Em
I said "it's too late"

I said "it's too late"

[Chorus]
CM D6
And now I can't stop thinking that I can't stop thinking
G6 Bsus4
That I almost gave you everything
CM D6
And now the whole thing's finished and I can't stop wishing
Em Em7
That I never gave you anything

[Verse 2]
CM D6
You wrote 100 letters just for me
G6 Bsus4
And I find them in my closet in the pockets of my jeans
CM D6
Now I'm constantly reminded of the time I was 19
Em Em7
Every single one's forgotten in a laundromat machine

[Refrain]
CM D6
But I don't let him touch me anymore
G6 Bsus4
I said "I'm not something to butter up and taste when you get bored
CM D6
'Cause I have spent too many nights on dirty bathroom floors
Em Em7
To find some peace and quiet right behind a wooden door"

[Pre-Chorus]
Em
He said "please don't go away"
Em
He said "please don't go away"
Em
I said "it's too late"
Em
I said "it's too late"
Em
He said "please don't go away"
Em
He said "please don't go away"
Em
I said "it's too late"

I said "it's too late"

[Chorus]
CM D6
And now I can't stop thinking that I can't stop thinking
G6 Bsus4
That I almost gave you everything
CM D6
And now the whole thing's finished and I can't stop wishing
Em Em7
That I never gave you anything
CM D6
And now I can't stop thinking that I can't stop thinking
G6 Bsus4
That I almost gave you everything (I said it's too late)
CM D6
And now the whole thing's finished and I can't stop wishing
Em Em7
That I never gave you anything

[Outro]
Em
He said "please don't go away"
Em
He said "please don't go away"
Em
I said "it's too late"
Em
I said "it's too late"
Em
He said "please don't go away"
Em
He said "please don't go away"
Em
I said "it's too late"
Em
I said "it's too late"
JULIA MICHAELS ISSUES Capo 1 || :)

[Verse 1]
C D
I'm jealous, I'm overzealous
G
When I'm down, I get real down
Em
When I'm high, I don't come down
C D
I get angry, baby, believe me
G
I could love you just like that
Em
And I could leave you just this fast

[Pre-Chorus]
C D
But you don't judge me
G Em
'Cause if you did, baby, I would judge you too
C D
No, you don't judge me
G Em
'Cause if you did, baby, I would judge you too

[Chorus]
C
'Cause I got issues
D
But you got 'em too
G
So give 'em all to me
Em
And I'll give mine to you
C
Bask in the glory
D
Of all our problems
G
'Cause we got the kind of love
Em
It takes to solve 'em
C D
Yeah, I got issues

And one of them is how bad I need you

[Verse 2]
C D
You do shit on purpose
G
You get mad and you break things
Em
Feel bad, try to fix things
C
But you're perfect
D
Poorly wired circuit
G
And got hands like an ocean
Em
Push you out, pull you back in

[Pre-Chorus]
C D
But you don't judge me
G Em
'Cause if you did, baby, I would judge you too
C D
No, you don't judge me
G Em
'Cause you see it from the same point of view
[Chorus]
C
'Cause I got issues
D
But you got 'em too
G
So give 'em all to me
Em
And I'll give mine to you
C
Bask in the glory
D
Of all our problems
G
'Cause we got the kind of love
Em
It takes to solve 'em
C D
Yeah, I got issues

And one of them is how bad I need you

[Bridge]
C D G Em
(I got issues, you got 'em too)

And one of them is how bad I need you


C D G Em
(I got issues, you got 'em too)

C
'Cause I got issues
(I got)
D
But you got 'em too
G
So give 'em all to me
(You got 'em too)
Em
And I'll give mine to you
C
Bask in the glory
(I got issues)
D
Of all our problems
G
'Cause we got the kind of love
(You got 'em too)
Em
It takes to solve 'em

C D
Yeah, I got issues (I got)
G Em
And one of them is how bad I need you (You got 'em too)
C D
Yeah, I got issues (I got)
G Em
And one of them is how bad I need you (You got 'em too)
C D
Yeah, I got issues (I got)
G
And one of them is how bad I need you
LITTLE MIX POWER [Verse 1]
Em
Hold up, no you didn't bow, bow
Em
I ain't the chick to walk behind you around town
Em
Just cos you're packin', packin', whoop, down south
Em
That don't mean I'm ever gonna take it laying down, baby
Em
Oh I'm a machine when I do it
Em
I'll be catching fire, gasoline when I do it
Em
Just cos you're packin', packin', whoop, down south
Em
That don't mean I'm ever gonna take it laying down

[Chorus]
C G
Baby, you're the man
D Em
But I got, I got, I got the power
C G
You make rain
D Em
But I'll make it, I'll make it, I'll make it shower
C G B7 Em
You should know, I'm the one who's in control
Am B7
I'll let you come take the wheel, as long as you don't forget
C G D Em C G
Who got the power? Hold up!

[Verse 2]
Em
My turn, I make this look easy

Tick Tick boom like gasoline-y


Em
Yeah they call me Lamborghini, cos I know just what I'm worth
Em
Zero to hundred, B-b-body make' em stutter
Em
Start my engine, push the button, cos I'm gon' be coming first
Em
Yeah, I'm a machine when I do it
Em
I'll be catching fire, gasoline when I do it
Em
Just cos you're packin', packin', whoop, down south
Em
That don't mean I'm ever gonna take it laying down

[Chorus]
C G
Baby, you're the man
D Em
But I got, I got, I got the power
C G
You make rain
D Em
But I'll make it, I'll make it, I'll make it shower
C G B7 Em
You should know, I'm the one who's in control
Am B7
I'll let you come take the wheel, as long as you don't forget
C G D Em C G D
Who got the power?
Em C G D Em C G D
Who got the power
Em
Who got the power
[Bridge]
C G D
Don't be fooled, I got you wrapped up
Em C
In the arms of an animal
G D
Got you thinking that I'm all innocent
Em C
But wait 'till I get you home
G B7
If you don't baby you should know
Em Am B7
I'm the one who's in control

N.C.
Motorbike, motorbike, motorbike, motorbike
N.C.
Bike, bike, bike, bike
Bike, bike, bike, bike, bike, bike, whoop

[Chorus]
C G
Baby, you're the man
D Em
But I got, I got, I got the power
C G
You make rain
D Em
But I'll make it, I'll make it, I'll make it shower
C G B7 Em
You should know, I'm the one who's in control
Am B7
I'll let you come take the wheel, as long as you don't forget
C G
Baby, you're the man
D Em
But I got, I got, I got the power
C G
You make rain
D Em
But I'll make it, I'll make it, I'll make it shower
C G D Em
You should know, I'm the one who's in control
C G D Em
I'll let you come take the wheel, as long as you don't forget

C G D Em

[Chorus]
C G D Em
Cause I got, I got, I got the power
C G D Em
Oh yeah, yeah, yeah
C G
Baby don't forget I got the power, yeah
D Em
The power yeah, yeah-eh

[Outro]

N.C
Motorbike, motorbike, motorbike, motorbike
N.C.
Bike, bike, bike, bike
Bike, bike, bike, bike, bike, bike, whoop
FIFTH HARMONY DOWN Capo 6th fret

The whole song:


D A Bm F#m
e|2-2-------------------|
B|----2-2-2--3-3--------|
G|---------------2-2-2--|
D|0-0-------------------|
A|----0-0-0--2-2--------|
E|---------------2-2-2--|

[Intro]
D A Bm F#m

[Verse 1]
D A
I need somebody with some patience
Bm F#m
'Cause you know I got a temperament
D A
And yeah, you got a reputation
Bm F#m
Nothin' that a little love can't fix
D A
There ain't no kinda situation
Bm F#m
Where I wouldn't cross a line for you
D A
FBI interrogation
Bm F#m
I would get up there and lie for you

[Pre-Chorus]
D A
When push come to shove
Bm F#m
You show me love
D A Bm F#m
When push come to shove, aye

[Chorus]
D A Bm
Long as you're holding me down, down, down
F#m D A Bm
I'm gon' keep lovin' you down, down, down
F#m D A Bm
Long as you're holding me down, down, down
F#m D A Bm
I'm gon' keep lovin' you down, down, down
F#m
I'm gon' keep lovin' you

[Verse 2]
D A
You the type that I could bake for (bake for)
Bm Bm
'Cause baby, you know how to take that cake
D A
And I'm the only one you wait for
Bm F#m
'Cause baby, you know that I'm worth the wait

[Pre-Chorus]
D A
When push come to shove
Bm F#m
You show me love (you show me love)
D A Bm F#m
When push come to shove, aye

[Chorus]
D A Bm
Long as you're holding me down, down, down
F#m D A Bm
I'm gon' keep lovin' you down, down, down
F#m D A Bm
Long as you're holding me down, down, down
F#m D A Bm
I'm gon' keep lovin' you down, down, down
F#m
I'm gon' keep lovin' you

[Verse 3]
N.C
It's just like Bonnie and Clyde just walked in
A gangster and his bride walked in
We on the same team and we ballin'
Got me showin' off my ring like I'm Jordan
And I'ma hold you down like you hold me
And I'll never tell a soul what you told me
When I was sittin' in the cells is when you showed me
It takes a real one to put up with the old me
D A
That's why you in the coupe with the low seat
Bm F#m
That's why we at the game on the floor seats
D A
My diamond that they seein' from the nosebleeds
Bm F#m
You make 'em mad, feel like you won a trophy

[Chorus]
D A Bm
Long as you're holding me {down}, down, down
F#m D A Bm
I'm gon' keep lovin' you down, down, down
F#m D A Bm
Long as you're holding me down, down, down
F#m D A Bm
I'm gon' keep lovin' you down, down, down (love you down)
F#m D A Bm
I'm gon' keep lovin' you down, down, down
F#m D A Bm
Long as you're holding me down, down, down
F#m D A Bm
I'm gon' keep lovin' you down, down, down (down, down, down)
F#m D A Bm
Long as you're holding me down, down, down (i'm gon' love you down)
F#m D A Bm
I'm gon' keep lovin' you down, down, down (long as you're lovin' me, boy)
F#m
I'm gon' keep lovin' you
Artist : Rita Ora Song : Poison Capo on 3rd Fret
[Verse 1]
G Bm C
I could have beer for breakfast, my sanity for lunch
G Bm C
Tryin' to get over how bad I want you so much
G Bm C
Innocence for dinner, pour somethin' in my cup
G Bm C
Anything and everything just to fill me up
Em D C
But nothing ever gets me high like this

[Chorus]
G C
I picked my poison and it's you
Em D
Nothing can kill me like you do
G C
You're goin' straight to my head
Em D
And I'm headin' straight for the edge
G C Em D
I picked my poison and it's you
G C Em D
I picked my poison and it's you

[Verse 2]
G Bm C
I can feel your whisper and layin' on the floor
G Bm C
I tried to stop, but I keep on comin' back for more
G Bm C
I'm a lightweight and I know it
G Bm C
Cause after the first time I was fallin', fallin' down
Em D C
But nothing ever gets me high like this

[Chorus]
G C
I picked my poison and it's you
Em D
Nothing can kill me like you do
G C
You're goin' straight to my head
Em D
And I'm headin' straight for the edge
G C Em D
I picked my poison and it's you
G C Em D
I picked my poison and it's you

[Bridge]
Em Am
I love bittersweet ecstasy that you got me in
D G D/F#
Fallin' deep, I can sleep tonight
Em Am
And you make me feel like I'm out of my mind
D G D/F#
But it's alright, it's alright, it's alright
Em C
Bittersweet ecstasy that you got me in
D G D/F#
Fallin' deep, I can sleep tonight
Em Am
And you make me feel like I'm out of my mind
C D
But it's alright, it's alright, it's alright
Em D/F# Bm C
Nothing ever gets me high like this
[Chorus]
G C
I picked my poison and it's you
Em D
Nothing can kill me like you do
G C
You're goin' straight to my head
Em D
And I'm headin' straight for the edge
G C Em D
I picked my poison and it's you
G C Em D
I picked my poison and it's you
G C Em D
G C Em D

I picked my poison and it's you


Three Days Grace Break Tuning D A D G B e
[Intro]
Guitar 1 (Distorted) BARRY
e|------------------------------------------------------------------------|
B|--15v-------------------------------------------------------------------|
G|--(7)Feedback-----------------------------------------------------------|
D|------------------------------------------------------------------------|
A|------------------------------------------------------------------------|
D|------------------------------------------------------------------------|

Guitar 2 (Distorted) ADAM


e|------------------------------------------------------------------------|
B|------------------------------------------------------------------------|
G|------------------------------------5--5---5--5--x--5---x--x---2--------|
D|--0-0--0-0-----3--5--/7--\5---3-----5--5---5--5--x--5---x--x---2--------|
A|--0-0--0-0--0--3--5--/7--\5---3-----3--3---3--3--x--3---x--x---0--------|
D|--0-0--0-0--0--3--5--/7--\5---3------------------x------x--x------------|

Guitar 1 (Distorted)
e|------------------------------------------------------------------------|
B|------------------------------------------------------------------------|
G|--10-------9-------5---2---------10-------9-------5-----7--(7)Feedback--|
D|------------------------------------------------------------------------|
A|------------------------------------------------------------------------|
D|------------------------------------------------------------------------|
|
Guitar 2 (Distorted) |
e|------------------------------------------------------------------------|
B|------------------------------------------------------------------------|
G|------------------------------------5--5---5--5--x--5---2---7-----------|
D|--0-0--0-0-----3--5--/7--\5---3-----5--5---5--5--x--5---2---7-----------|
A|--0-0--0-0--0--3--5--/7--\5---3-----3--3---3--3--x--3---0---5-----------|
D|--0-0--0-0--0--3--5--/7--\5---3------------------x----------------------|

[Verse 1]

Guitars 1 & 2 (Distorted)


e|------------------------------------------------------------------------|
B|------------------------------------------------------------------------|
G|--(7)Feedback-----------------------------------------------------------|
D|--------------------------------------------------8--7--5--3--5--7------|
A|--------------------------------------------------8--7--5--3--5--7------|
D|--------------------------------------------------8--7--5--3--5--7------|

Guitars 1 & 2 (Distorted)


e|------------------------------------------------------------------------|
B|------------------------------------------------------------------------|
G|------------------------------------------------------------------------|
D|--------------------------------------------------8--7--5--3--5--7------|
A|--------------------------------------------------8--7--5--3--5--7------|
D|--------------------------------------------------8--7--5--3--5--7------|

[Pre-Chorus]

Guitar 1 (Distorted)
e|------------------------------------------------------------------------|
B|------------------------------------------------------------------------|
G|--777-77-77-----77--77--7----/10---777-77-77-----77--77--7----/12-------|
D|--xxx-xx-xx-----xx--xx--x------x---xxx-xx-xx-----xx--xx--x------x-------|
A|--555-55-55-----55--55--5----/-8---555-55-55-----55--55--5----/10-------|
D|------------------------------------------------------------------------|
|
Guitar 2 (Distorted) |
e|------------------------------------------------------------------------|
B|------------------------------------------------------------------------|
G|------------------------------------------------------------------------|
D|--8--------------------------------5------------------------------------|
A|--8--------------------------------5------------------------------------|
D|--8--------------------------------5------------------------------------|

[Chorus]
Guitar 2 (Distorted)
e|------------------------------------------------------------------------|
B|------------------------------------------------------------------------|
G|------------------------------------5--5---5--5--x--5---x--x---2--------|
D|--0-0--0-0-----3--5--/7--\5---3-----5--5---5--5--x--5---x--x---2--------|
A|--0-0--0-0--0--3--5--/7--\5---3-----3--3---3--3--x--3---x--x---0--------|
D|--0-0--0-0--0--3--5--/7--\5---3------------------x------x--x------------|

Guitar 2 (Distorted)
e|------------------------------------------------------------------------|
B|------------------------------------------------------------------------|
G|------------------------------------5--5---5--5--x--5---2---7-----------|
D|--0-0--0-0-----3--5--/7--\5---3-----5--5---5--5--x--5---2---7-----------|
A|--0-0--0-0--0--3--5--/7--\5---3-----3--3---3--3--x--3---0---5-----------|
D|--0-0--0-0--0--3--5--/7--\5---3------------------x----------------------|

Guitar 2 (Distorted)
e|------------------------------------------------------------------------|
B|------------------------------------------------------------------------|
G|---------------------------------5--5---5--5--x--5---x--x---2-----------|
D|--0-0--0-0------10---10----------5--5---5--5--x--5---x--x---2-----------|
A|--0-0--0-0--0----8----7----------3--3---3--3--x--3---x--x---0-----------|
D|--0-0--0-0--0---------------------------------x------x--x---------------|

Guitar 2 (Distorted)
e|------------------------------------------------------------------------|
B|------------------------------------------------------------------------|
G|------------------------------------5--5---5--5--x--5---2---7-----------|
D|--0-0--0-0-----3--5--/7--\5---3-----5--5---5--5--x--5---2---7-----------|
A|--0-0--0-0--0--3--5--/7--\5---3-----3--3---3--3--x--3---0---5-----------|
D|--0-0--0-0--0--3--5--/7--\5---3------------------x----------------------|

[Post Chorus]

Guitar 1 (Clean with reverb)


e|------------------------------------------------------------------------|
B|---------------------5---b6--r5------------------------6----5-----------|
G|---------------------7---------------------------------7----------------|
D|------------------------------------------------------------------------|
A|------------------------------------------------------------------------|
D|------------------------------------------------------------------------|
|
Guitar 2 (Distorted) |
e|------------------------------------------------------------------------|
B|------------------------------------------------------------------------|
G|------------------------------------------------------------------------|
D|------------------------------------------------------------------------|
A|--0--0--0--0--0--0------------------0--0--0--0--0--0--------------------|
D|--0--0--0--0--0--0------------------0--0--0--0--0--0--------------------|

[Verse 2]

Guitars 1 & 2 (Distorted)


e|------------------------------------------------------------------------|
B|------------------------------------------------------------------------|
G|------------------------------------------------------------------------|
D|--------------------------------------------------8--7--5--3--5--7------|
A|--------------------------------------------------8--7--5--3--5--7------|
D|--------------------------------------------------8--7--5--3--5--7------|

Guitars 1 & 2 (Distorted)


e|------------------------------------------------------------------------|
B|------------------------------------------------------------------------|
G|------------------------------------------------------------------------|
D|--------------------------------------------------8--7--5--3--5--7------|
A|--------------------------------------------------8--7--5--3--5--7------|
D|--------------------------------------------------8--7--5--3--5--7------|

[Pre-Chorus]

Guitar 1 (Distorted)
e|------------------------------------------------------------------------|
B|------------------------------------------------------------------------|
G|--777-77-77-----77--77--7----/10---777-77-77-----77--77--7----/12-------|
D|--xxx-xx-xx-----xx--xx--x------x---xxx-xx-xx-----xx--xx--x------x-------|
A|--555-55-55-----55--55--5----/-8---555-55-55-----55--55--5----/10-------|
D|------------------------------------------------------------------------|
|
Guitar 2 (Distorted) |
e|------------------------------------------------------------------------|
B|------------------------------------------------------------------------|
G|------------------------------------------------------------------------|
D|--8--------------------------------5------------------------------------|
A|--8--------------------------------5------------------------------------|
D|--8--------------------------------5------------------------------------|

[Chorus]
Guitar 2 (Distorted)
e|------------------------------------------------------------------------|
B|------------------------------------------------------------------------|
G|------------------------------------5--5---5--5--x--5---x--x---2--------|
D|--0-0--0-0-----3--5--/7--\5---3-----5--5---5--5--x--5---x--x---2--------|
A|--0-0--0-0--0--3--5--/7--\5---3-----3--3---3--3--x--3---x--x---0--------|
D|--0-0--0-0--0--3--5--/7--\5---3------------------x------x--x------------|

Guitar 2 (Distorted)
e|------------------------------------------------------------------------|
B|------------------------------------------------------------------------|
G|------------------------------------5--5---5--5--x--5---2---7-----------|
D|--0-0--0-0-----3--5--/7--\5---3-----5--5---5--5--x--5---2---7-----------|
A|--0-0--0-0--0--3--5--/7--\5---3-----3--3---3--3--x--3---0---5-----------|
D|--0-0--0-0--0--3--5--/7--\5---3------------------x----------------------|

Guitar 2 (Distorted)
e|------------------------------------------------------------------------|
B|------------------------------------------------------------------------|
G|---------------------------------5--5---5--5--x--5---x--x---2-----------|
D|--0-0--0-0------10---10----------5--5---5--5--x--5---x--x---2-----------|
A|--0-0--0-0--0----8----7----------3--3---3--3--x--3---x--x---0-----------|
D|--0-0--0-0--0---------------------------------x------x--x---------------|

Guitar 2 (Distorted)
e|------------------------------------------------------------------------|
B|------------------------------------------------------------------------|
G|------------------------------------5--5---5--5--x--5---2---7-----------|
D|--0-0--0-0-----3--5--/7--\5---3-----5--5---5--5--x--5---2---7-----------|
A|--0-0--0-0--0--3--5--/7--\5---3-----3--3---3--3--x--3---0---5-----------|
D|--0-0--0-0--0--3--5--/7--\5---3------------------x----------------------|

[Bridge]

Guitar 1 (Distorted)
e|----------------------------------------------------------/-------------|
B|----------------------------------------------------------/-------------|
G|--9-------------------------------------------------------/-------------|
D|------------------------------------------------------------------------|
A|------------------------------------------------------------------------|
D|------------------------------------------------------------------------|
|
Guitar 2 (Distorted) |
e|------------------------------------------------------------------------|
B|------------------------------------------------------------------------|
G|------------------------------------------------------------------------|
D|--0-----------------------------------------------8--7--5--3--5--7------|
A|--0-----------------------------------------------8--7--5--3--5--7------|
D|--0-----------------------------------------------8--7--5--3--5--7------|

Guitar 1 (Distorted)
e|------------------17/18-17-15-17v----------17/18-17-15-17v--15----------|
B|--15---15v------15-----------------------15---------------------18-17-18|
G|-----------14-17--------------------14-17-------------------------------|
D|------------------------------------------------------------------------|
A|------------------------------------------------------------------------|
D|------------------------------------------------------------------------|
|
Guitar 2 (Distorted) |
e|------------------------------------------------------------------------|
B|------------------------------------------------------------------------|
G|------------------------------------------------------------------------|
D|--0---7--7----------8--7--0--7--7-------------0--10--7--------8--7--5---|
A|--0---5--7----------8--7--0--5--7-------------0--10--7--------8--7--5---|
D|--0------7----------8--7--0-----7-------------0--10--7--------8--7--5---|

Guitar 1 (Distorted)
e|-----------------------17/18-17-15-17v--------17/18-17-15-17-15----15---|
B|------17b---15v------15---------------------15------------------18----18|
G|----------------14-17------------------14-17----------------------------|
D|------------------------------------------------------------------------|
A|------------------------------------------------------------------------|
D|------------------------------------------------------------------------|
|
Guitar 2 (Distorted) |
e|------------------------------------------------------------------------|
B|------------------------------------------------------------------------|
G|------------------------------------------------------------------------|
D|-3-5-7---0--7--7--------8--7--0--7--7-----------0--10--7------8--7--5---|
A|-3-5-7---0--5--7--------8--7--0--5--7-----------0--10--7------8--7--5---|
D|-3-5-7---0-----7--------8--7--0-----7-----------0--10--7------8--7--5---|

Guitar 1 (Distorted)
e|------------------------------------------------------------------------|
B|--17-18-----------------------------------------13------13--15----------|
G|------------15--14--12------12--14--15--14--15------15------------------|
D|------------------------15----------------------------------------------|
A|------------------------------------------------------------------------|
D|------------------------------------------------------------------------|
|
Guitar 1 (Distorted) |
e|------------------------------------------------------------------------|
B|------------------------------------------------------------------------|
G|------------------------------------------------------------------------|
D|--3--5--7----8---7---5---3---5---7---8---7---5---3---5---7---0----------|
A|--3--5--7----8---7---5---3---5---7---8---7---5---3---5---7---0----------|
D|--3--5--7----8---7---5---3---5---7---8---7---5---3---5---7---0----------|

[Chorus]

Guitar 2 (Distorted)
e|------------------------------------------------------------------------|
B|------------------------------------------------------------------------|
G|------------------------------------5--5---5--5--x--5---x--x---2--------|
D|--0-0--0-0-----3--5--/7--\5---3-----5--5---5--5--x--5---x--x---2--------|
A|--0-0--0-0--0--3--5--/7--\5---3-----3--3---3--3--x--3---x--x---0--------|
D|--0-0--0-0--0--3--5--/7--\5---3------------------x------x--x------------|

Guitar 2 (Distorted)
e|------------------------------------------------------------------------|
B|------------------------------------------------------------------------|
G|------------------------------------5--5---5--5--x--5---2---7-----------|
D|--0-0--0-0-----3--5--/7--\5---3-----5--5---5--5--x--5---2---7-----------|
A|--0-0--0-0--0--3--5--/7--\5---3-----3--3---3--3--x--3---0---5-----------|
D|--0-0--0-0--0--3--5--/7--\5---3------------------x----------------------|

Guitar 2 (Distorted)
e|------------------------------------------------------------------------|
B|------------------------------------------------------------------------|
G|---------------------------------5--5---5--5--x--5---x--x---2-----------|
D|--0-0--0-0------10---10----------5--5---5--5--x--5---x--x---2-----------|
A|--0-0--0-0--0----8----7----------3--3---3--3--x--3---x--x---0-----------|
D|--0-0--0-0--0---------------------------------x------x--x---------------|

Guitar 2 (Distorted)
e|------------------------------------------------------------------------|
B|------------------------------------------------------------------------|
G|------------------------------------5--5---5--5--x--5---2---7-----------|
D|--0-0--0-0-----3--5--/7--\5---3-----5--5---5--5--x--5---2---7-----------|
A|--0-0--0-0--0--3--5--/7--\5---3-----3--3---3--3--x--3---0---5-----------|
D|--0-0--0-0--0--3--5--/7--\5---3------------------x----------------------|
Guitar 1 (Distorted)
e|---------17/18-17-15-17-------------------------------------------------|
B|-------15----------------------------17------18-------------------------|
G|--14-17----------------------------------------------17-----14----------|
D|------------------------------------------------------------------------|
A|------------------------------------------------------------------------|
D|------------------------------------------------------------------------|
|
Guitar 2 (Distorted) |
e|------------------------------------------------------------------------|
B|------------------------------------------------------------------------|
G|------------------------------------5--5---5--5--x--5---x--x---2--------|
D|--0-0--0-0-----3--5--/7--\5---3-----5--5---5--5--x--5---x--x---2--------|
A|--0-0--0-0--0--3--5--/7--\5---3-----3--3---3--3--x--3---x--x---0--------|
D|--0-0--0-0--0--3--5--/7--\5---3------------------x------x--x------------|

Guitar 1 (Distorted)
e|---------17/18-17-15-17-------------------------------15----------------|
B|-------15--------------------------17-------18---------------18---------|
G|--14-17-----------------------------------------------------------------|
D|------------------------------------------------------------------------|
A|------------------------------------------------------------------------|
D|------------------------------------------------------------------------|
|
Guitar 2 (Distorted) |
e|------------------------------------------------------------------------|
B|------------------------------------------------------------------------|
G|------------------------------------5--5---5--5--x--5---2---7-----------|
D|--0-0--0-0-----3--5--/7--\5---3-----5--5---5--5--x--5---2---7-----------|
A|--0-0--0-0--0--3--5--/7--\5---3-----3--3---3--3--x--3---0---5-----------|
D|--0-0--0-0--0--3--5--/7--\5---3------------------x----------------------|

Guitar 1 (Distorted)
e|---17/18-17-15-17-------------------------------------------------------|
B|---------------------------------17------18-----------------------------|
G|--------------------------------------------------17-----14-------------|
D|------------------------------------------------------------------------|
A|------------------------------------------------------------------------|
D|------------------------------------------------------------------------|
|
Guitar 2 (Distorted) |
e|------------------------------------------------------------------------|
B|------------------------------------------------------------------------|
G|---------------------------------5--5---5--5--x--5---x--x---2-----------|
D|--0-0--0-0------10---10----------5--5---5--5--x--5---x--x---2-----------|
A|--0-0--0-0--0----8----7----------3--3---3--3--x--3---x--x---0-----------|
D|--0-0--0-0--0---------------------------------x------x--x---------------|

Guitar 1 (Distorted)
e|----------17/18-17-15-17-------------------------------15---------------|
B|--------15-------------------------17------18---------------18----------|
G|---14-17----------------------------------------------------------------|
D|------------------------------------------------------------------------|
A|------------------------------------------------------------------------|
D|------------------------------------------------------------------------|
|
Guitar 2 (Distorted) |
e|------------------------------------------------------------------------|
B|------------------------------------------------------------------------|
G|------------------------------------5--5---5--5--x--5---2---7-----------|
D|--0-0--0-0-----3--5--/7--\5---3-----5--5---5--5--x--5---2---7--------0---|
A|--0-0--0-0--0--3--5--/7--\5---3-----3--3---3--3--x--3---0---5--------0---|
D|--0-0--0-0--0--3--5--/7--\5---3------------------x-------------------0---|

[Outro]

Guitar 1 (Distorted)
e|------------------------------------------------------------------------|
B|--15--------------------------------------------------------------------|
G|------------------------------------------------------------------------|
D|---------------------------------------------------------------------0---|
A|---------------------------------------------------------------------0---|
D|---------------------------------------------------------------------0---|
Three Days GraceI Hate Everything About You Drop D Tuning (Low to High)D-A-D-G-B-E
Guitar 1 (Acoustic)

E|------------------------------------------------------------------|
B|------------------------------------------------------------------|
G|-----6--------6--------6-----6-----4-6----4-6---4-6---4-6---------|
D|---4-6------4-6------4-6---4-6-----4-6----4-6---4-6---4-6---------|
A|---4--------4--------4-----4-----0-------0-----0-----0------------|
D|-4------0-4------0-4------0-----0-------0-----0-----0-------------|
Repeat Riff Until Pre-Chorus

Only When I Stop.....


Guitar 2
E|--------------------------------------------------0----------------|
B|--------------------------------------------------3----------------|
G|-4------------------------------------------------2----------------|
D|-2----------------------------------0-------------0----------------|
A|-2----------------------------------0-------------0----------------|
D|-2----------------------------------0-------------0----------------|

[Chorus]
E|-------------------------------------------------------------------|
B|-------------------------------------------------------------------|
G|--6-6----6-6-----------9-9-9-9-9-9-------9-4-4-4-4-4-4-------------|
D|--4-4----0-0-----------7-7-7-7-7-7-------7-2-2-2-2-2-2-------------|
A|--4-4----0-0-----------7-7-7-7-7-7-------7-2-2-2-2-2-2-------------|
D|--4-4----0-0-----------7-7-7-7-7-7-------7-2-2-2-2-2-2-------------|

Why Do I......
E|-------------------------------------------------------------------|
B|-------------------------------------------------------------------|
G|-6-6-6-6-6-6----6-6-6-6-6-6-6-------4-4-4-4-4-4---x----------------|
D|-4-4-4-4-4-4----4-0-0-0-0-0-0-------2-2-2-2-2-2---x----------------|
A|-4-4-4-4-4-4----4-0-0-0-0-0-0-------2-2-2-2-2-2---x--7-------------|
D|-4-4-4-4-4-4----4-0-0-0-0-0-0-------2-2-2-2-2-2---x--7----6--------|

[Interlude]
Clean
Why do I Love You
E|-----------------------------------0------------------------------|
B|-----------------------------3-------3----------------------------|
G|--------------------------6------------6--------------------------|
D|------------------------------------------------------------------|
A|------------------------------------------------------------------|
D|------------------------------------------------------------------|

[Bridge]
(Distortion)
Only When I Start To Think About You I Know
E|-----------------------------------------------------------------|
B|-----------------------------------------------------------------|
G|-13-13-13-14---14-14-16-16--13-13-13-14--14-14-16-16-------------|
D|--x--x--x--x----x--x--x--x---x--x--x--x---x--x--x--x-------------|
A|-11-11-11-12---12-12-14-14--11-11-11-12--12-12-14-14-------------|
D|-----------------------------------------------------------------|

E|-----------------------------------------------------------------|
B|-----------------------------------------------------------------|
G|-13-13-13-14---14-14-16-16---13-13-13--14/13----9----------------|
D|--x--x--x--x----x--x--x--x----x--x--x---x-------x----------------|
A|-11-11-11-12---12-12-14-14---11-11-11--12/11----7----------------|
D|-----------------------------------------------------------------|

*This next riff is played with the Bridge Above!!


(Distortion)

E|-----------------------------------------------------------------|
B|-----------------------------------------------------------------|
G|--7-7-7-7-----7-7-7---9-9-9-9-----9-9-9---11-11-11-11----11-11-11|
D|--x-x-x-x-----x-x-x---x-x-x-x-----x-x-x----x--x--x--x-----x--x--x|
A|--5-5-5-5-----5-5-5---7-7-7-7-----7-7-7----9--9--9--9-----9--9--9|
D|-----------------------------------------------------------------|
E|-----------------------------------------------------------------|
B|-----------------------------------------------------------------|
G|--9-9-9-9-9----9-------------------------------------------------|
D|--x-x-x-x-x----x-------------------------------------------------|
A|--7-7-7-7-7----7-------------------------------------------------|
D|-----------------------------------------------------------------|

Only When You Start....

E|-----------------------------------------------------------------|
B|-----------------------------------------------------------------|
G|-9---9---9---9---9---9---9---9---9---9---9---9---9---9-----------|
D|-x---x---x---x---x---x---x---x---x---x---x---x---x---x-----------|
A|-7---7---7---7---7---7---7---7---7---7---7---7---7---7-----------|
D|-----------------------------------------------------------------|

***End Song With Opening Riff


Song:Never Too Late Band: Three Days GraceTuning: Drop D
[Intro/verse/outro acoustic] (x3) (x1)
E|--------------------------------|-------------------|
B|--------------------------------|-------------------|
G|--------------------------------|-------------------|
D|-------10-----------10--8--7--0-|-------10-----10---|
A|----8------8-----0--------------|----7------7--10---|
D|-8------------0-----------------|-7------------10---|

Chorus distorted (x1)


E|-----------------------------------------|
B|-----------------------------------------|
G|-----------------------------------------|
D|-0----8----7----10----0----8----7----10--|
A|-0----8----7----10----0----8----7----10--|
D|-0----8----7----10----0----8----7----10--|

E|-----------------------------------------|
B|-----------------------------------------|
G|-----------------------------------------|
D|-0----8----7----10----88---0----7----10--|
A|-0----8----7----10----88---0----7----10--|
D|-0----8----7----10----88---0----7----10--|

[Intro/verse/outro acoustic] (x3) (x1)


E|--------------------------------|-------------------|
B|--------------------------------|-------------------|
G|--------------------------------|-------------------|
D|-------10-----------10--8--7--0-|-------10-----10---|
A|----8------8-----0--------------|----7------7--10---|
D|-8------------0-----------------|-7------------10---|
[Chorus] distorted (x1)
E|-----------------------------------------|
B|-----------------------------------------|
G|-----------------------------------------|
D|-0----8----7----10----0----8----7----10--|
A|-0----8----7----10----0----8----7----10--|
D|-0----8----7----10----0----8----7----10--|

E|-----------------------------------------|
B|-----------------------------------------|
G|-----------------------------------------|
D|-0----8----7----10----88---0----7----10--|
A|-0----8----7----10----88---0----7----10--|
D|-0----8----7----10----88---0----7----10--|
[Bridge] (x3) (x1)
E|---------------------------------------------|-----------|
B|--------------- -----------------------------|-----------|
G|---------------------------------------------|-----------|
D|-8-8-8-8--8-8-8-8--8-8--3-3-3--10-10-10-10---|-8--7--10--|
A|-8-8-8-8--8-8-8-8--8-8--3-3-3--10-10-10-10---|-8--7--10--|
D|-8-8-8-8--8-8-8-8--8-8--3-3-3--10-10-10-10---|-8--7--10--|

E|------------------|
B|------------------|
G|------------------| (x3)
D|-------10-----12--|
A|----8-------------|
D|-8---------0------|
[Chorus] distorted (x1)
E|-----------------------------------------|
B|-----------------------------------------|
G|-----------------------------------------|
D|-0----8----7----10----0----8----7----10--|
A|-0----8----7----10----0----8----7----10--|
D|-0----8----7----10----0----8----7----10--|

(x6)
E|--------------------|-----------|
B|--------------------|-----------|
G|--------------------|-----------|
D|-0----8----7----10--|-88---0----|
A|-0----8----7----10--|-88---0----|
D|-0----8----7----10--|-88---0----|
[Intro/verse/outro acoustic] (x3) (x1)
E|--------------------------------|-------------------|
B|--------------------------------|-------------------|
G|--------------------------------|-------------------|
D|-------10-----------10--8--7--0-|-------10-----10---|
A|----8------8-----0--------------|----7------7--10---|
D|-8------------0-----------------|-7------------10---|
HALSEY DEVIL IN ME
Am F
You Said I would've hit the ceiling

C G
You said I
Am F
You said I should eat my feelings
C G
You said I

Am F
I won't take anyone down if I cry tonight
C G
But I still let everyone down when I change in size
Am F
And I went tumbling down trying to reach your high
C G
But I scream too loud if I speak my mind

Am
I don't wanna wake it up
F
I don't wanna wake it up
C
I don't wanna wake it up
G
The devil in me
Am
I don't wanna wake it up
F
I don't wanna wake it up
C
I don't wanna wake it up
G
The devil in me

Am
Gotta wake up, gotta wake up
F
Gotta wake up, gotta wake up
C G
Gotta wake up, come back to life

Am
Gotta wake up, gotta wake up
F
Gotta wake up, gotta wake up
C G
Gotta wake up, come back to life

Am F
You said I'm too much to handle
C G
You said I
Am F
Shine too bright, I burnt the candle
C G
Flew too high

Am F
I won't take anyone down if I cry tonight
C G
But I still let everyone down when I change in size
Am F
And I went tumbling down trying to reach your high
C G
But I scream too loud if I speak my mind
Am
I don't wanna wake it up
F
I don't wanna wake it up
C
I don't wanna wake it up
G
The devil in me
Am
I don't wanna wake it up
F
I don't wanna wake it up
C
I don't wanna wake it up
G
The devil in me

Am
Gotta wake up, gotta wake up
F
Gotta wake up, gotta wake up
C G
Gotta wake up, come back to life

Am
Gotta wake up, gotta wake up
F
Gotta wake up, gotta wake up
C G
Gotta wake up, come back to life

Am
Now I gotta wake it up
F
Now I gotta wake it up
C
Now I gotta wake it up
G
The devil in me
Am
Now I gotta wake it up
F
Now I gotta wanna wake it up
C
Now I gotta wake it up
G
The devil in me

Am
Gotta wake up, gotta wake up
F
Gotta wake up, gotta wake up
C G
Gotta wake up, come back to life

Am
Gotta wake up, gotta wake up
F
Gotta wake up, gotta wake up
C G
Gotta wake up, come back to life
JASON MRAZ I WONT GIVE UP Tuning: Standard Capo 2
[Intro]
Dsus4 D Dsus4 D
Dsus4 D Asus4 A

[Verse]
Dsus4 D Dsus4 D
When I look into your eyes, It's like watching the night sky,
Dsus4 D Asus4 A
Or a beautiful sunrise. There's so much they hold.
Dsus4 D Dsus4 D
And just like them old stars, I see that you've come so far,
Dsus4 D Asus4 A
To be right where you are. How old is your soul?

[Chorus]
G D Bm A
I won't give up on us, even if the skies get rough.
G D Asus4 A
I'm giving you all my love. I'm still looking up.

[Verse]
Dsus4 D Dsus4 D
And when you're needing your space, to do some navigating,
Dsus4 D Asus4 A
I'll be here patiently waiting, to see what you find.

[Chorus]
G D Bm A
'Cause even the stars they burn. Some even fall to the earth.
G D Asus4 A
We've got a lot to learn. God knows we're worth it.
Gmaj7
No, I won't give up.

[Bridge]
Em
I don't wanna be someone who walks away so easily
A
I'm here to stay and make the difference that I can make.
Em
Our differences they do a lot to teach us how to use
A
The tools and gifts we got yeah, we got a lot at stake.
C
And in the end, you're still my friend at least we did intend

For us to work we didn't break, we didn't burn.


A/C#
We had to learn how to bend without the world caving in.
C A/C# D
I had to learn what I've got, and what I'm not and who I am.

[Chorus]
G D Bm A
I won't give up on us, even if the skies get rough.
G D Bm7
I'm giving you all my love. I'm still looking up.
A
Still looking up.
[Chorus]
G D
I won't give up on us (no I'm not... giving up)
Bm A
God knows I'm tough enough (I am tough... I am loved)
G D
We've got a lot to learn (we're alive... we are loved)
A
God knows we're worth it (and we're worth it)
[Chorus]
G D Bm A
I won't give up on us, even if the skies get rough.
G D A
I'm giving you all my love. I'm still looking up.
CHORD OVERSTREET HOLD ON [Intro]
Bm G D
[Verse 1]
Bm G
Loving and fighting
D
Accusing, united
D
I can't imagine a world with you gone
Bm G D
The joy and the chaos, the demons we're made of
D
I'd be so lost if you left me alone
Bm G
You locked yourself in the bathroom
D
Lying on the floor when I break through
Bm G
I pull you in to feel your heartbeat
D D
Can you hear me screaming "please don't leave me"

[Chorus]
Bm G D
Hold on, I still want you
Bm G D
Come back, I still need you
Bm G
Let me take your hand, I'll make it right
D
I swear to love you all my life
Bm G D
Hold on, I still need you

[Verse 2]
Bm G D
A long endless highway, you're silent beside me
D
Drivin' a nightmare I can't escape from
Bm G D
Helplessly praying, the light isn't fadin'
D
Hiding the shock and the chill in my bones
Bm G D
They took you away on a table
D
I pace back and forth as you lay still
Bm G D
I pull you in to feel your heartbeat
D
Can you hear me screaming, "please don't leave me"

[Chorus]
Bm G D
Hold on, I still want you
Bm G D
Come back, I still need you
Bm G D
Let me take your hand, I'll make it right
D
I swear to love you all my life
Bm G D
Hold on, I still need you

[Bridge]
G Bm
I don't wanna let go
A G
I know I'm not that strong
Bm
I just wanna hear you
A G
Saying baby, let's go home
Bm
Let's go home
A G
Yeah, I just wanna take you home

[Outro]
Bm G D
Hold on, I still want you
Bm G D
Come back, I still need you

/: /

F#m E F#m
',
F#m E F#m
,
Bm A Bm
', '
F#m E F#m
,
A E C# F#m
, ,
A E C# F#m
, , '
, ,
, , '

',
,
',
,

, , ... ] 3x

/: /
G

Dm (F#) Gm

Dm (C#m) Cm

A# (Bm) Cm

D
'

Gm



'

A# F (G) Cm

(D#) D

,
,

D# A# D
...

Gm Dm Cm D# F F# Gm

...

...

/: /

Dm A# Dm

Dm A# F

Gm

A# C Dm

Dm
'
A#

Gm C

A# C Dm

Dm C
' '
A# Am

Dm C
' '
A# Am C Dm

...

' ...