You are on page 1of 3

Tus Ojos Belenova

Intro :

Bateria y el teclado toca en A

Verso :

Viendo tus ojos....


A D B F#
G :----------------------7------------------------------|
D :--------------------------------2h4--4-------4-------|
A :--0000-0345---5-5--5----2--2-2-----------------------|
E :-----------------------------------2---2-2--2-2345---|

viento suave...

A D B F#
G :----------------------7------------------------------|
D :--------------------------------2h4--4-------4-------|
A :--0000-0345---5-5--5----2--2-2-----------------------|
E :-----------------------------------2---2-2--2-2345---|

...mundo gira
A D B F#
G :---------------------7-----------------------------|
D :-------------------------------x2h4---4------------|
A :---------x345---5-5-5-5-2--2-2---------------------|
E :---5-5------------------------------2---2----------|

Coro :

uuuuuh ahhhhh y en esta historia


A D B F#
G :-------------9-|--7---------7-|-----------|--2-/4-2--------|
D :--------6-/7--7|--------------|--------2h4|---------4-2-4--|
A :----6/7--------|5---5-5----5-5|2--2-2----|-----------------|
E :--5------------|--------------|-----------|2---------------|

Uuuuuh ahhhhh no existe el tiempo

G :-----------|---------7-|-----------|--------------|
D :-----------|-----------|--------2h4|-4-------4----|
A :-----------|5--5-5--5-5|2--2-2-----|--------------|
E :--5--5-5--5|-----------|-----------|2--2-2--2-5---|

porque en tus brazos me invente el universo, por fin entiendo

G :-------------9-|--7--------7-|------------|----------------|
D :--------6-/7---|-------------|---------2h4|--4-------4-----|
A :----6/7-------7|5---5-5---5-5|2--2-2-----|-----------------|
E :--5------------|-------------|------------|2---2-2--2-5----|

que el pasado y el futuro solo existe hoy

G :-------------9--|-----------7-|------------|---------------|
D :--------6-/7----|-------------|---------2h4|--4----4-------|
A :----6/7--------7|5---5-5---5-5|2--2-2-----|----------------|
E :--5-------------|-------------|------------|2-----2----2---|
T P T P T
ante Verso 2 :

G :--------------------7----------------------------|
D :-----------7-------------------2h4---4-------4---|
A :-------------5-5-5-5-52-2-2-2--------------------|
E :--5-5-5-5-5-5----------------------2---2-2--2-5--|

Viendo tus ojos.... (aca cambia un cachito)


G :-------------------------------------------------|
D :---------------------------------2h4---4------4--|
A :-----------345--5-5--012--2-2--------------------|
E :----5-5------------------------------2---2-2-2-5-|

viento suave...

G :-----------------7----------------------------|
D :-----------------------------2h4----4------4--|
A :---------345--5-5-52--2-2---------------------|
E :---5-5----------------------------2---2-2-2-5-|

mundo gira... (otro cambio xikito)

G :-----------------7----------------------------|
D :----------------------------------------------|
A :---------345--5-5-52--2-2---------------------|
E :---5-5------------------------2-02-02---------|

Coro 2 :

uuuuuh ahhhhh y en esta historia


A D B F#
G :-------------9-|--7---------7-|-----------|--2-/4-2--------|
D :--------6-/7---|--------------|--------2h4|----------4-24--|
A :----6/7-------7|5---5-5----5-5|2--2-2----|-----------------|
E :--5------------|--------------|-----------|2---------------|

Uuuuuh ahhhhh no existe el tiempo

G :-----------|---------7-|-----------|--------------|
D :-----------|-----------|--------2h4|-4-------4----|
A :-----------|5--5-5--5-5|2--2-2-----|--------------|
E :--5--5-5--5|-----------|-----------|2--2-2--2-5---|

porque en tus brazos me invente el universo, por fin lo entiendo

G :-------------9-|--7--------7-|------------|----------------|
D :--------6-/7---|-------------|---------2h4|--4-------4-----|
A :----6/7-------7|5---5-5---5-5|2--2-2-----|-----------------|
E :--5------------|-------------|------------|2---2-2--2-5----|

que el pasado y el futuro solo existe hoy

G :-------------9--|-7---------7-|------------|--2/42/4-2-----|
D :--------6-/7----|-------------|---------2h4|----------242--|
A :----6/7--------7|5---5-5---5-5|2--2-2------|---------------|
E :--5-------------|-------------|------------|2--------------|

Y yo te amo....
G :-------------9--|-7---------7-|------------|--2/4-2~--------|
D :--------6-/7----|-------------|---------2h4|----------4-2---|
A :----6/7--------7|5---5-5---5-5|2--2-2------|------------4-0-|
E :--5-------------|-------------|------------|2---------------|

Y yo te amo....
G :-------------9--|-7---------7-|------------|--2/4-2-----------|
D :--------6-/7----|-------------|--------x2h4|----------4-2-----|
A :----x7---------7|5---5-5---5-5|2--2-2------|------------4-0---|
E :--5-------------|-------------|------------|2-----------------|
-------------------------------------------------------------------
Another One Bites The Dust - Queen
----------------------------------------------------------------------------
Tabbed By: Vinsta
E-mail: Vinsta922@netscape.net

Tuning: EADG (Standard)

[Riff 1...........................End]
G|------------------------------------|--------------------------------|
D|------------------------------------|--------------------------------|
A|------------------------------------|--------------------------------|
E|-5-3--0---0---0------0---0-0-3-0-5--|-5-3--0---0---0------0-0-3-0-5--|

[Riff 2...........................End]
G|------------------------------------|--------------------------------|
D|------------------------------------|--------------------------------|
A|------------------------------------|--------------------------------|
E|----0---0---0-------0--0-0-3-0-5----|----0---0---0-----0--0-0-3-0-5--|

G|------------------------------------|--------------------------------|
D|------------------------------------|--------------------------------|
A|------------------------------------|--------------------------------|
E|----0---0---0-------0--0-0-3-0-5----|----0---0---0-----0--0-0-3-0-5--|

[Riff 3...........................
G|------------------------------------|--------------------------------|
D|------------------------------------|---------------------5----------|
A|------------------------------------|---3--3---3----4--5-------------|
E|----0---0---0-------0--0-0-3-0-5----|-------------------------3------|

.............................................End]
G|----------------------|------------------------|---------------------|
D|----------------------|----------------5-------|---------------------|
A|--3-3---3---4-5-------|--3-3---3---4-5---------|---------------------|
E|------------------3---|--------------------3---|-5-5---5---6-7---7-3-|

G|--------------------|----------------------------|-------------------|
D|-repeat riff 2 3x -|----------------------------|- repeat riff 2 4x-|
A|--------------------|----------------------------|-------------------|
E|--------------------|-2-----7-6-5-5-5----2-----3-|-------------------|

G|--------------------|--------------------|---------------------------|
D|-repeat riff 3 1x -|--------------------|---------- play -----------|
A|--------------------|--------------------|-- riff 2, riff 1, riff 2--|
E|--------------------|-5-5---5---6-7----3-|---------------------------|

G|------------------------------------|--------------------------------|
D|------------------------------------|--------------------------------|
A|------------------------------------|--------------------------------|
E|---2-----7-6-5-5-5----2-----3--0----|-3-5-0---0---0----0--0-0-3-0-5--|

G|-----------------------------------------------|---------------------|
D|--------------------- play --------------------|---------------------|
A|-- riff 2 1x, riff 1 1x, riff 2 1x, riff 3 1x -|---------------------|
E|-----------------------------------------------|-5-5---5---6-7---7-3-|

G|---------------------------------|----------------------------------|
D|-- play riff 2, riff 1, riff 3 --|----------------------------------|
A|---------------------------------|----------------------------------|
E|---------------------------------|---2-----7---6-5-5-5------2-----3-|

|---------------------------------|----------------------------------|
|-- play riff 1, riff 2, riff 3 --|----------------------------------|
|---------------------------------|----------------------------------|
|---------------------------------|--5-5---5---6-7---7-3---0---------|