You are on page 1of 3

Ed Sheeran - Photograph (Cifra)

(Ed Sheeran)

Intro: E C#m B9 A9

E
Loving can hurt
C#m
Loving can hurt sometimes
B9 A9
But it's the only thing that I know

E
When it gets hard
C#m
you know it can get hard sometimes
B9 A9
it is the only thing that makes us feel alive

C#m A9
We keep this love in a photograph
E B9
We made these memories for ourselves
C#m
where our eyes are never closing
A9
our hearts were never broken
E B9
and times forever frozen still

E
So you can keep me inside the pocket of your
B9
ripped jeans holding me close until our
C#m A9
eyes meet, you won't ever be alone
E
Wait for me to come home

Solo:

e|---0---0------------0---0------------0---0-----------0---0---------|
B|-----4---0------------4---0------------4---0-----------4---0-------|
G|-------------2p1--------------2p1--------------2p1-------------2p1-|
D|-------------------------------------------------------------------|
A|-----------------------------------4---------------4---------------|
E|-0----------------0------------------------------------------------|

e|---0---0------------0---0-----------0---0-------------|
B|-----4---0------------4---0-----------4---0-----------|
G|-------------2p1--------------2p1-------------2p1-----|
D|------------------------------------------------------|
A|-2----------------2---------------0----------------0--|
E|------------------------------------------------------|
E
Loving can heal
C#m
Loving can mend your soul
B9 A9
And it's the only thing that I know

E
I swear it will get easier
C#m
remember that with every piece of ya
B9 A9
And it's the only thing we take with us when we die

C#m A9
We keep this love in a photograph
E B9
We made these memories for ourselves
C#m
where our eyes are never closing
A9
our hearts were never broken
E B9
and times forever frozen still

E
So you can keep me inside the pocket of your
B9
ripped jeans holding me close until our
C#m A9
eyes meet, you won't ever be alone
E
And if you hurt me well that's ok baby, only
B9
words bleed inside these pages you just
C#m A9
hold me and I won't ever let you go

C#m
Wait for me to come home
A9
Wait for me to come home
E
Wait for me to come home
B9
Wait for me to come home

E
Oh you could fit me inside the necklace you got when you were
B9
sixteen next to your heartbeat there I
C#m A9
should be, keep it deep within your soul
E
And if you hurt me well that's ok baby, only
B9
words bleed inside these pages you just
C#m A9
hold me and I won't ever let you go

E
When I'm away I will remember how you
B9 C#m
kissed me under the lamppost back on 6th Street
A9
hearing you whisper through the phone

Wait for me to come home

E C#m B9 A9
|||o|| 4 |o|||o |||||| ||||||
|oo||| ||||o| |o||oo ||oo||
|||||| ||oo|| |||||| ||||||
|||||| |||||| ||oo|| ||||||
|||||| |||||| |||||| ||||||

________________________________________________
Cifras.com.br - Milhares de Cifras para Download

Related Interests