You are on page 1of 1

EastboundandDownHarmonySecondGuitar.

txt
East Bound and Down- Harmony Guitar

E|-----------------------------------------------------------------------------------------------------------------------
B|-------------------------------------------------------------------------------------------------5(B)--5--3------------
G|--------4--5(B)--5--4--5(B)--------4--5(B)5(B)--4-----2(B)--2--0--2--0-----2(B)-2--0--2--0-------------------4--4--3--2
D|--4--5----------------------4--5-------------------5-------------------2-------------------2--0------------------------
A|-----------------------------------------------------------------------------------------------------------------------
E|-----------------------------------------------------------------------------------------------------------------------

E|------------------------------------7--8(b)--8(b)--7--------8(b)--8--7--5---------------------------------------
B|-----------------------6-----8--10--------------------8---------------------7----5(b)--5--3--------5(b)--5--3---
G|--------4-----6--7--8------------------------------------------------------------------------4-----------------4
D|--4--5----------------------------------------------------------------------------------------------------------
A|----------------------------------------------------------------------------------------------------------------
E|----------------------------------------------------------------------------------------------------------------

E|--------------------------------------------------------------------------------------------3---------------------------------
B|-----------------------------------------------------------------------------------------------5-----------3--5-------3-------
G|-----------------------0--4--0--------------------------------0--5--0-----------------2--4----------2--4------------4----32--0
D|--2--2--2--4--4--4--5-----------4--2--0--2--2--2--4--4--4--5-----------4--2-------2-0-----------------------------------------
A|------------------------------------------------------------------------------------------------------------------------------
E|------------------------------------------------------------------------------------------------------------------------------

E|---------------------------------------------------------------------------------------------------------11--
B|--------------------------------------------------------------5----------------------------------------------
G|--------------------4--4--5--4--------------------------5--7-----7--5-------------7--6--9--7--9--10--11------
D|--5--5--5--7--7--7--------------7--5--5--5--5--7--7--7-----------------7----7--5-----------------------------
A|-------------------------------------------------------------------------------------------------------------
E|-------------------------------------------------------------------------------------------------------------

E|-----------------------------------------------------------------------------------------------------------------------
B|-------------------------------------------------------------------------------------------------5(B)--5--3------------
G|--------4--5(B)--5--4--5(B)--------4--5(B)5(B)--4-----2(B)--2--0--2--0-----2(B)-2--0--2--0-------------------4--4--3--2
D|--4--5----------------------4--5-------------------5-------------------2-------------------2--0------------------------
A|-----------------------------------------------------------------------------------------------------------------------
E|-----------------------------------------------------------------------------------------------------------------------

E|------------------------------------7--8(b)--8(b)--7--------8(b)--8--7--5---------------------------------------
B|-----------------------6-----8--10--------------------8---------------------7----5(b)--5--3--------5(b)--5--3---
G|--------4-----6--7--8------------------------------------------------------------------------4-----------------4
D|--4--5----------------------------------------------------------------------------------------------------------
A|----------------------------------------------------------------------------------------------------------------
E|----------------------------------------------------------------------------------------------------------------

Page 1