You are on page 1of 147

INTRO: Dm A C A# Gm A Dm (BIS)

e----5p3-----|--------------------|
B---6---7p6h7|----5-6s8-6---------|
G--7---------|---6-------7p6------|
D-7----------|--7-----------7-----|
A5-----------|-7-------------8p7h8|
E------------|--------------------|

e----------|------------|13-12h13p12-10
B----------|------------|--------------
G----------|-10-9h10p9-7|--------------
D-8-7h8p7-5|------------|--------------
A----------|------------|--------------
E----------|------------|--------------

e------------------
B-8h10-8----8-8s10-
G-9----9-10-9-9s10-
D------------------
A------------------
E------------------

|-----riff 1-----|
e-----5h6p5------|-13p12-13-13s15-17-17-17-|
B----6-----8p6s10|-------------------------|
G---7------------|-------------------------|
D--7-------------|-------------------------|
A-5--------------|-------------------------|
E----------------|-------------------------|

e-13-12h13p12-10---(10-10h12p10-10-10)*2-
B----------------------------------------
G----------------------------------------
D----------------------------------------
A----------------------------------------
E----------------------------------------

e-12-13-12h13p12-10-------------------
B-------------------9-10-9h10p9-------
G------------------------------11-9-7-
D-------------------------------------
A-------------------------------------
E-------------------------------------
1.
Dm                   A   
Tus besos saben tan amargos,
 C           A#           Gm
cuando te ensucias los labios,
           A           Dm           
con mentiras, otra vez.

(riff 2)
e-----------------------
B-10-11-11--10--10--8-6-
G-10-12-12-10--10--9-7--
D-----------------------

2. (igual a 1.)
Dices que te estoy haciendo daño,
que con el paso de los años,
me estoy haciendo mas cruel.

A.:
  Gm                  A               A#
Y es que yo nunca creí que te vería,
           A#                 A
remendando mis heridas, 
    Gm                A
con girones de tu piel,

e-------------
B--10s8--6-6--
G-10-s9-7-7---
D-------------

Gm                A        Dm
De ti aprendió mi corazón,
Gm               A          Dm
de ti aprendió mi corazón,
C#m7                       Gm   A          Gm  A
no me reproches niña que no sepa darte amor.

CORO:
    A#
Me has enseñado tu
           Gm              A               Gm
tu has sido mi maestra para hacer sufrir
  A#         A                        Dm  
Si alguna vez fui malo, lo aprendí de ti
D7                                        Gm
no digas que no entiendes como, puedo ser asi
   C#m7                     Gm             A
Si te estoy haciendo daño, lo aprendí de ti
  A#
Me has enseñado tu, 
          Gm           A             Dm
maldigo mi inocencia, y te maldigo a ti,
    D7                           Gm           
maldita la maestra y maldito el aprendiz,
         A               Gm       A       Dm    
maldigo lo que hago, y te lo debo... a ti.

e-------------------|
B-10-10-8-8-6-6s5s6-|
G-10-10-9-9-7-7s6s7-|
D-------------------|

Dm A C A# Gm A Dm

e----------|--------------------|
B----------|-6-6s8-8-8-10-11-10-|
G-riff 1---|-7-7s9-9-9-10-12-10-|
D----------|--------------------|
A----------|--------------------|
E----------|--------------------|

e-13-13s15-15-15s17-17-17-v17-13-15---10-
B-----------------------------------13---
G----------------------------------------
D----------------------------------------
A----------------------------------------
E----------------------------------------

e-10-12-13----------------------
B---------10-10-11-10-----------
G--------------------12-10------
D-------------------------12-12-
A-------------------------------
E-------------------------------

3.(igual a 1)
Me duelen tus caricias por que noto,
que tus manos son cristales rotos,
bajo mis pies. riff 2

4.
Dm                   A   
Dices que te estoy haciendo daño,
 C                           A#
que con el paso de los años,
  Bb ­ A               Dm
me estoy haciendo mas cruel.

B.(igual A A)
Pero es que nunca creí que te vería,
remendando mis heridas,
con girones de tu piel.

De ti aprendió mi corazón,
de ti aprendió mi corazón,
y ahora no me reproches que no sepa darte amor,
que no sepa darte amor.

CORO:
    A#
Me has enseñado tu,
           Gm             A               Gm
tu has sido mi maestra para hacer sufrir,
  A#         A                        Dm  
Si alguna vez fui malo, lo aprendí de ti,
D7                                  Gm
no digas que no entiendes como, puedo ser asi,
   C#m7                         Gm             A
Si te estoy haciendo daño niña, lo aprendí de ti,
  A#
Me has enseñado tu, 
          Gm           A             Dm
maldigo mi inocencia, te maldigo a ti,
    D7                            Gm           
maldita la maestra y maldito el aprendiz,
         A                Gm       A                     Dm    
maldigo lo que hago, maldigo lo que hago y te lo debo... a ti.

e--------------10-10p9-9-9---9---
B-8s10-10-10-10------------------
G--------------------------------
D--------------------------------
A--------------------------------
E--------------------------------

e9­9s6­6­6­­6­6s3­3­3s5­5­­­­­­­­­­­­­­­­                                                   
B-------------------------7-8-8h10p8-7-8-
G----------------------------------------
D----------------------------------------
A----------------------------------------
E----------------------------------------

e---------------13-13-13-13-13-12-12-
B--------7-8-10----------------------
G-7-9-10-----------------------------
D------------------------------------
A------------------------------------
E------------------------------------

e-12-12-10-10-9-9p7-7-7-5-7--
B----------------------------
G----------------------------
D----------------------------
A----------------------------
E----------------------------

Dm :557765
A: 577655
A#: 688766
D7: 557575
C#m7: 446454
Intro: (Gm)
e|---------------------------|
b|---------------------------|
g|---------------15h17-15h17~|
D|--17~-17-17-17-------------|
A|---------------------------|
E|---------------------------|
(Gm)
e|------------------------------------------|
b|---------------------15h18-15p18----------|
g|---------------15h17-------------17p15----|
D|--17~-17-17-17-------------------------17~|
A|------------------------------------------|
E|------------------------------------------|
(Gm)
e|-----------------------------------|
b|-----------------------------------|
g|-----------15h17-17-17p15----------|
D|--17-17-17----------------17-15-17~|
A|-----------------------------------|
E|-----------------------------------|
(Gm)
e|--------------------------------------|
b|-----------------15h18-15p18----------|
g|-----------15h17-------------17p15----|
D|--17-17-17-------------------------17~|
A|--------------------------------------|
E|--------------------------------------|
(Gm)
e|-----------------------------------|
b|-----------------------------------|
g|-----------15h17-17-17p15----------|
D|--17-17-17----------------17-15-17~|
A|-----------------------------------|
E|-----------------------------------|
(Gm)
e|--------------------------------------|
b|-----------------15h18-15p18----------|
g|-----------15h17-------------17p15----|
D|--17-17-17-------------------------17~|
A|--------------------------------------|
E|--------------------------------------|
(Gm)
e|-----------------------------------|
b|-----------------------------------|
g|-----------15h17-17-17p15----------|
D|--17-17-17----------------17-15-17~|
A|-----------------------------------|
E|-----------------------------------|
(Gm)
e|--------------------------------------|
b|-----------------15h18-15p18----------|
g|-----------15h17-------------17p15----|
D|--17-17-17-------------------------17~|
A|--------------------------------------|
E|--------------------------------------|

(Hasta aquí abarca el intro, y aquí empieza la letra con un rifft


muy similar al del intro que va así)
(Gm)
e|-----------------------------------------------------|
b|-----------------------------------------------------|
g|------------15h17-15h17~-----------15h17-17-17p15----|
D|---17-17-17---------------17-17-17-------------------|
A|-----------------------------------------------------|
E|-----------------------------------------------------|
Veo lo que creo ver y no veo mas
(Gm)
e|------------------------------------------------------|
b|------------------------------------------------------|
g|-----------15h17-17-17p15-----------15h17-17-17p15----|
D|--17-17-17-----------------17-17-17-----------------17|
A|------------------------------------------------------|
E|------------------------------------------------------|
De lo que pueda contra no recuerdo nada

(F)
e|-----------------------------------------------|
b|-----------------------------------------------|
g|-----------------------------------------------|
D|--19-x-x-x-19-x-x-x-19-x-x-x-19-x-x-x-19-x-x-x-|
A|-----------------------------------------------|
E|-----------------------------------------------|
No hay necesidad de hablarlo mas
(Gm)
e|-----------------------------------|
b|-----------------------------------|
g|-----------15h17-17-17p15----------|
D|--17-17-17----------------17-15-17~|
A|-----------------------------------|
E|-----------------------------------|
(Gm)
e|--------------------------------------|
b|-----------------15h18-18p15----------|
g|-----------15h17-------------17p15----|
D|--17-17-17-------------------------17~|
A|--------------------------------------|
E|--------------------------------------|

(Gm)
e|-----------------------------------------------------|
b|-----------------------------------------------------|
g|------------15h17-15h17~-----------15h17-17-17p15----|
D|---17-17-17---------------17-17-17-------------------|
A|-----------------------------------------------------|
E|-----------------------------------------------------|
Creo creer temo temer que esto es verdad

(Gm)
e|------------------------------------------------------|
b|------------------------------------------------------|
g|-----------15h17-17-17p15-----------15h17-17-17p15----|
D|--17-17-17-----------------17-17-17-----------------17|
A|------------------------------------------------------|
E|------------------------------------------------------|
La vida se nublo en su totalidad

(F) (Am)
e|-------------------------------------------------|
b|-------------------------------------------------|
g|-------------------------------------------------|
D|--19-x-x-x-19-x-x-x-19-x-x-x-19-x-x-x-19-x-x-x-19|
A|-------------------------------------------------|
E|-------------------------------------------------|
Estoy perdido y no se mirar lo que deje aya atrás

(Un consejo, trata de opacar las cuerdas lo


mas que se pueda en el toque de cada nota,
por que si te puedes dar cuenta, el ritmo va muteado,
es cuestión de que pongas mucha oreja, seria fácil
ponerte el muteo, pero no hay nada mejor que lo
intentes, pero te advierto que no es técnica fácil,
pero inténtalo).
Coro:

A# Eb
En ese camino largo
Dm
Que un día me vio caminar
A# Eb
Nació esta ciega herida
Dm
Que borro hoy día mi ayer

(Se repite esta parte del intro después del sonido del teclado).

(Gm)
e|-----------------------------------|
b|-----------------------------------|
g|-----------15h17-17-17p15----------|
D|--17-17-17----------------17-15-17~|
A|-----------------------------------|
E|-----------------------------------|

(Gm)
e|------------------------------------------|
b|---------------------15h18-15p18----------|
g|---------------15h17-------------17p15----|
D|--17~-17-17-17-------------------------17~|
A|------------------------------------------|
E|------------------------------------------|
(Gm)
e|-----------------------------------------------------|
b|-----------------------------------------------------|
g|------------15h17-15h17~-----------15h17-17-17p15----|
D|---17-17-17---------------17-17-17-------------------|
A|-----------------------------------------------------|
E|-----------------------------------------------------|
Personas extrañas hablan de quien fui

(Gm)
e|------------------------------------------------------|
b|------------------------------------------------------|
g|-----------15h17-17-17p15-----------15h17-17-17p15----|
D|--17-17-17-----------------17-17-17-----------------17|
A|------------------------------------------------------|
E|------------------------------------------------------|
Pretenden darme valor sin que sepa nada
(F)
e|-----------------------------------------------|
b|-----------------------------------------------|
g|-----------------------------------------------|
D|--19-x-x-x-19-x-x-x-19-x-x-x-19-x-x-x-19-x-x-x-|
A|-----------------------------------------------|
E|-----------------------------------------------|
No hay necesidad ni siquiera

(Gm)
e|-----------------------------------|
b|-----------------------------------|
g|-----------15h17-17-17p15----------|
D|--17-17-17----------------17-15-17~|
A|-----------------------------------|
E|-----------------------------------|
De llorar
(Gm)
e|--------------------------------------|
b|-----------------15h18-18p15----------|
g|-----------15h17-------------17p15----|
D|--17-17-17-------------------------17~|
A|--------------------------------------|
E|--------------------------------------|
Por estar así
(Gm)
e|-----------------------------------------------------|
b|-----------------------------------------------------|
g|------------15h17-15h17~-----------15h17-17-17p15----|
D|---17-17-17---------------17-17-17-------------------|
A|-----------------------------------------------------|
E|-----------------------------------------------------|
Mi amnesia me dice absolutamente

(F) (Am)
e|-------------------------------------------------|
b|-------------------------------------------------|
g|-------------------------------------------------|
D|--19-x-x-x-19-x-x-x-19-x-x-x-19-x-x-x-19-x-x-x-19|
A|-------------------------------------------------|
E|-------------------------------------------------|
Nada mas que esa sensación de ansiedad

Coro:
A# Eb
En ese camino largo
Dm
Que un día me vio caminar
A# Eb
Queme una biografía
Dm
Y sople cenizas del ayer
A# Eb
No intenten enseñarme
(Rifft 2)Dm
Quien me quiso y a quien debo amar
A# Eb
Comienza el día cero
(Rifft 1)Dm
Y mañana su continuidad…
A#
Sha-ra-da-ra da-daun
Eb
Sha-ra-da-ra da-daun
(Rifft 2) Dm
Y soplé cenizas del ayer

(De fondo sigue el sha-ra-da-ra-da-daun)

A#
Sha-ra-da-ra da-daun
Eb
Sha-ra-da-ra da-daun
(Rifft 2)Dm
Y sople cenizas de mi ayer
A# Eb
No intenten enseñarme
(Rifft 1)Dm
Sha-ra-da-ra da-daun
Dm
Sha-ra-da-ra da-daun
A#
Sha-ra-da-ra da-daun
Eb
Sha-ra-da-ra da daun
(Rifft 2)Dm
Quien me quiso y a quien debo amar.
(Ahora, voy a poner el Rifft 1 y 2, estos los hace una segunda
guitarra que solo entra para hacer los riffts, ahora bien,
para hacerlos a la perfección ,pongan un distor con delay muy
bajo y consíganse un “Slide” de metal o plástico para poder
deslizar los riffts a la perfección, y también para hacer el
solo, para hacer los riffts mantengan la pastilla grave de la
guitarra, y para hacer el solo cambien a la pastilla aguda, yo
les diré cuando hacerlo, esto lo sugiero para que la toquen
idéntica al disco)

“”Rifft 1””
e|-----------------------------------------------|
b|-----------------------------------------------|
g|--\\\\\\\\\\\17~~~~~~//////14~~~~/////////////-|
D|-----------------------------------------------|
A|-----------------------------------------------|
E|-----------------------------------------------|
“”Rifft 2””
e|-----------------------------------------------|
b|-----------------------------------------------|
g|--\\\\\\\\\\\17~~~~~~\\19/////////14/////////--|
D|-----------------------------------------------|
A|-----------------------------------------------|
E|-----------------------------------------------|

(Aquí la guitarra uno cambia de canal claro a un


distorsionador y hace los tonos con quinta,
mientras la guitarra
que hace los riffts cambia de la pastilla grave a la pastilla
aguda para lograr a la perfección el sonido del solo,
trata de hacer un slide de nota de A#5 a Eb5 por que se escucha
de lujo, y es un arreglo básico en esta rola, así que
inténtelo)

Solo: (3:16/17 min)


A#5 Eb5 D5
e|--------17/18/17~-----------------------------------------|
b|------------------18~/20~---13/15/13-13/15////11v~~~------|
g|----------------------------------------------------------|
D|----------------------------------------------------------|
A|----------------------------------------------------------|
E|----------------------------------------------------------|
(Hasta aquí, se ocupa el slide, la siguiente parte se toca
normal así como la voy a poner sin slide)
A#5 (3:28 min) Eb5 D5
e|--------------------17brp15~~--17b-17br-b~~~~~~~~~~~---|
b|-----------------18--------------------------------------|
g|--\\\\\\\\\\\\\~~----------------------------------------|
D|---------------------------------------------------------|
A|---------------------------------------------------------|
E|---------------------------------------------------------|
Mientras el full final del solo suena y sube cada ve mas
Beto canta……..

Quien me quiso y a quien debo amar.

(Para el final la guitarra cambia otra vez de distorsionador a


canal claro, con el cual haces toda la canción, échale ganas ya
estamos en el final)

Final:

(3:39 min) (Gm)


e|------------------------------------------|
b|---------------------15h18-15p18----------|
g|---------------15h17-------------17p15----|
D|--17~-17-17-17-------------------------17~|
A|------------------------------------------|
E|------------------------------------------|

(Gm)
e|-----------------------------------|
b|-----------------------------------|
g|-----------15h17-17-17p15----------|
D|--17-17-17----------------17-15-17~|
A|-----------------------------------|
E|-----------------------------------|
(Gm)
e|--------------------------------------|
b|-----------------15h18-15p18----------|
g|-----------15h17-------------17p15----|
D|--17-17-17-------------------------17~|
A|--------------------------------------|
E|--------------------------------------|

(Gm)
e|-----------------------------------|
b|-----------------------------------|
g|-----------15h17-17-17p15----------|
D|--17-17-17----------------17-15-17~|
A|-----------------------------------|
E|-----------------------------------|
(Gm)
e|--------------------------------------|
b|-----------------15h18-15p18----------|
g|-----------15h17-------------17p15----|
D|--17-17-17-------------------------17~|
A|--------------------------------------|
E|--------------------------------------|

(Gm)
e|-----------------------------------|
b|-----------------------------------|
g|-----------15h17-17-17p15----------|
D|--17-17-17----------------17-15-17~|
A|-----------------------------------|
E|-----------------------------------|
(3:53 min) (Gm)
e|--------------------------------------|
b|-----------------15h18-15p18----------|
g|-----------15h17-------------17p15----|
D|--17-17-17-------------------------17~|
A|--------------------------------------|
E|--------------------------------------|

(Gm)
e|-----------------------------------|
b|-----------------------------------|
g|-----------15h17-17-17p15----------|
D|--17-17-17----------------17-15-17~|
A|-----------------------------------|
E|-----------------------------------|

(Gm)
e|--------------------------------------|
b|-----------------15h18-15p18----------|
g|-----------15h17-------------17p15----|
D|--17-17-17-------------------------17~|
A|--------------------------------------|
E|--------------------------------------|

(Gm)
e|-----------------------------------|
b|-----------------------------------|
g|-----------15h17-17-17p15----------|
D|--17-17-17----------------17-15-17~|
A|-----------------------------------|
E|-----------------------------------|
(Gm)
e|--------------------------------------|
b|-----------------15h18-15p18----------|
g|-----------15h17-------------17p15----|
D|--17-17-17-------------------------17~|
A|--------------------------------------|
E|--------------------------------------|

(4:05 min) (Gm)


e|-----------------------------------|
b|-----------------------------------|
g|-----------15h17-17-17p15----------|
D|--17-17-17----------------17-15-17~|
A|-----------------------------------|
E|-----------------------------------|
(Gm)
e|-----------------------------------|
b|-----------------------------------|
g|-----------15h17-17-17p15----------|
D|--17-17-17----------------17-15-17~|
A|-----------------------------------|
E|-----------------------------------|

(Gm)
e|-----------------------------------|
b|-----------------------------------|
g|-----------15h17-17-17p15----------|
D|--17-17-17----------------17-15-17~|
A|-----------------------------------|
E|-----------------------------------|

(Gm)
e|--------------------------------------|
b|-----------------15h18-15p18----------|
g|-----------15h17-------------17p15----|
D|--17-17-17-------------------------17~|
A|--------------------------------------|
E|--------------------------------------|

(4:15 min) (Gm)


e|----------------------------------------------------------|
b|----------------------------------------------------------|
g|-----------------------------15h17-17-17p15---------------|
D|--17-x-x-x-17-x-x-x-17-17-17----------------17-15-17-17-x-|
A|----------------------------------------------------------|
E|----------------------------------------------------------|

(Gm)
e|----------------------------------------------------------|
b|----------------------------------------------------------|
g|-----------------------------15h17-17-17p15---------------|
D|--17-x-x-x-17-x-x-x-17-17-17----------------17-15-17-17-x-|
A|----------------------------------------------------------|
E|----------------------------------------------------------|

Fade out……….
(Se va yendo el sonido poco a poco, hasta quedar en silencio completo)
Intro: 
|----------------------------|--12----------12---------13---------12-----------|
|----------------------------|------10----------10---------10---------10-------|
|----------------------------|----------9-----------9----------9---------------|
|----------------------------|-------------------------------------------------|
|-0--0--0--0-----0--0--0-----|-------------------------------------------------|
|----------------------------|-------------------------------------------------|

Riff 1

  Am               F                C               Em                 Am
|----------------|---------------|----------------|-----------7-----|-----------------------|
|-------5-----5--|-------6-----5-|-------5--------|---------------8-|------5-----5----------|
|-----5----5-----|----5-----5----|----5-----5-----|--------9--------|----5----5-------------|
|----------------|---------------|-------------7--|-----9-----------|-----------------------|
|----------------|-8-------------|----------------|--7--------------|-----------------------|
|--5-------------|---------------|--8-------------|-----------------|--5--------------------|

                                         End Riff 1
  F                C               Em
|----------------|---------------|----------------|
|------6-----5---|-------5-------|-----------8--7-|
|---5-----5------|----5-----5----|--------9-------|
|----------------|-------------7-|-----9----------|
|-8--------------|---------------|--7-------------|
|----------------|--8------------|----------------|

Verse 1

 Am        F            C     Em
   No hace mucho que lei tu carta,
           Am   F          C
 y, sin fuerzas para contestar,
        Em                    Am 
 mil pedazos al viento nos separan.
        F           C
 pondre casa en un pais
     Em      Am
 lejano para olvidar
 F                C    Em             With Riff 1
 este miedo hacia ti, este miedo hacia ti.
Verse 2

 Am         F          C
 y no hace mucho que rompi
        Em       Am 
 tu recuerdo pensando
  F      C         Em
 acabar de una vez.
 Am        F             C
 pero el tiempo y la distancia
          Em       Am
 no son todo para mi
            F       C   Em
 siempre hay algo que me hace volver.

Chorus  
   F             Em             Am                      F             G  
  siempre he escuchado, y ya no te creo     ¿porque no te entiendo?   ¿porque estas 
   
|-1-------------|-0-----------|--0-------------------|--1-----------|-3-------------|
|-1-------------|-0-----------|--1-------------------|--1-----------|-4-------------|
|-2-------------|-0-----------|--2-------------------|--2-----------|-5-------------|
|-3-------------|-2-----------|--2-------------------|--3-----------|-5-------------|
|-3-------------|-2-----------|--0-------------------|--3-----------|-3-------------|
|-1-------------|-0-----------|--0-------------------|--1-----------|-3-------------|

  Em
  tan lejos ?  uuh­­­ uh­­  uh­­­­­­

|---------2---------3--------2-------|
|----5------5----5-----5--------5----|
|-------4------4----------4--------4-|
|--2---------------------------------|
|------------------------------------|
|------------------------------------|

   F             Em             Am                      F             G  
  siempre he escuchado, y ya no te creo     ¿porque no te entiendo?   ¿porque estas 
   
|-1-------------|-0-----------|--0-------------------|--1----1------|-3-----3-------|
|-1-------------|-0-----------|--1-------------------|--1------1----|-4--------4----|
|-2-------------|-0-----------|--2-------------------|--2--2-----2--|-5--5--------5-|
|-3-------------|-2-----------|--2-------------------|--3-----------|-5-------------|
|-3-------------|-2-----------|--0-------------------|--3-----------|-3-------------|
|-1-------------|-0-----------|--0-------------------|--1-----------|-3-------------|

  Em
  tan lejos   uuh­­­ uh­­  uh­­­­­­

|---------2---------3--------2-------|
|----5------5----5-----5--------5----|
|-------4------4----------4--------4-|
|--2---------------------------------|
|------------------------------------|
|------------------------------------| With Riff 1

Verse 3

 Am        F             C
 se que siempre he sido asi
          Em         Am
 y que no tengo remedio,
 F          C      Em
 ni lo quiero tener.
 Am           F          C
 pero ni el miedo ni tu cartas
         Em        Am
 lo son todo para mi
        F     C          Em         
 quizas otra vez te echare la culpa a ti.

Chorus

  Am               F                C               Em                 Am
|----------------|---------------|----------------|-----------7-----|-----------------------|
|-------5-----5--|-------6-----5-|-------5--------|---------------8-|------5-----5----------|
|-----5----5-----|----5-----5----|----5-----5-----|--------9--------|----5----5-------------|
|----------------|---------------|-------------7--|-----9-----------|-----------------------|
|----------------|-8-------------|----------------|--7--------------|-----------------------|
|--5-------------|---------------|--8-------------|-----------------|--5--------------------|

                                        
  F                C               Em                 Am              F
|----------------|-----------------|--------------7-|---------------|-----------------------|
|------------5---|-----------10----|-----------8----|-------5-----5-|--------------5--------|
|---5--7--5------|-------10-----10-|--------9-------|----5-----5----|----5--7---5-----------|
|----------------|----10-----------|-----9----------|---------------|-----------------------|
|-8--------------|-----------------|--7-------------|---------------|-8---------------------|
|----------------|--8--------------|----------------|-5-------------|-----------------------|

  C                   Em           Am               C            F#m          F
|---------------8--|----------7--|----------------|------------|------------|---------------|
|-----------10-----|--------8----|--------5-------|-----5------|------5-----|-----5-/6-/5---|
|-------10---------|------9------|-----5-----5----|---5---5----|----5---5---|---5-----------|
|----10------------|----9--------|--------------7-|-5--------5-|--4-------4-|-3-------------|
|------------------|--7----------|----------------|------------|------------|---------------|
|-8----------------|-------------|--5-------------|------------|------------|---------------|

  Am

|-5---|
|-5---|
|-5---|
|-7---|
|-7---|
|-5---|
riff 1 (intro)
e­­­­­­­­­­­­­­­­­­­­­­­­­­­­­­­­­­­­­­­­­­­­­­­­­­­­­­
B­­­­­­­­­­­­­­­­­­­­­­­­­­­­­­­­­­­­­­­­­­­­­­­­­­­­­­
G­­­­­­­­­­­­­­­­­­­­­­­­­­­­­­­­­­­­­­­­­­­­­­­­­­­­­­
D­­­­­­­­­­­­­2s3­­4s5­­­­­­­­­­­­­­­2­­­­­­­­­­­­­­­­­
A­­­­­­­­­3­5­­­­­­­­­­­­­­­­­­­3­5­­­­3­­­­­­­­­­­­­­­
E­­­0­­3­­­­­­­­­­­­­­­­­­­0­­3­­­­­­­­­­3­­1­­­­­­­­­­

riff 2 (intro)
e­­­­­­­­­­­­­­­­­­­­­­­­­­­­­­­­­­­­­­­­­­­­­­­­­­­­­­
B­­­­­­­­­­­­­­­­­­­­­­­­­­­­­­­­­­­­­­­­­­­­­­­­­­­­­­
G­­­­­­­­­­­­2s3­­4s5­­­­­­­­­­­­­­­­­­­­2h3p2­­­­­­­­­
D­­­­­­­­3­5­­­­­­­­­­­­­­­­­­­­­­­3­­5­­­­­­­­­­3­­­­­
A­­­­­3­­­­­­­­­­­­­­­­­­­­­­­­­3­­­­­­­­­­­­­­­­­­­3­­
E­­1­­­­­­­­­­­­­­­­­­­­­­­­1­­­­­­­­­­­­­­­­­­­­­­­­­­

RIFF 3 (versos)
e­­­­­­­­­­­­­­­­­­­­­­­­­­­­­­­­­­­­­­­­­­­­­­­­­­­­­­
B­­­­­­­­­­­­­­­­­­­­­­­­­­­­­­­­­­­­­­­­­­­­­­­­­­­­­­
G­­­­­­­­­­­­­­­­­­­­­­­­­­­­­­­­­­­­­­­­­­­­­­­­­­­­­­
D­­­­­­­­­­­­­­­­­­­­­­­­­­­­­­­­­­­­­­­­­­­­­­­­­­­­­­
A­­­­­­­­3h5­­­3­­­­­­­­­­­­­­­3h5­­­3­­­­­­­­­­­­­­­­­
E­1­­­­3­­­­­­­­­­3­­1­­­­­­­3­­­­­­­­­3­­1­­­­­­­­­­­­

e­­­­­­­­­­­­­­­­­­­­­­­­­­­­­­­­­­­­­­­
B­­­­­­­­­­­­­­­­­­­­­­­­­­­­­­­­­­­­­­­
G­­­­­­­­­­­­­­­­­­­­­­­­­­­­­­­­­­­­­­3h5­­­­­­­­­­­­­
D­­­­3h5­­3­­­­­­­­­­­­­­­­­­3h5­­­3h5­­­­­­­­­­­­­­­­­
A­3­­­­­­­­­3­­0­­­­­­­­­­3­­­­­­­­­­­­­­­­­­­­­­­­­­­­
E­­­­­­­­­­­­­­­­­­­­­­­­­­­­­­­­­­­­­­­­­­­­­­­­­­­­­­

CHATO GUERRERO.
akumal_x@yahoo.com
Intro: x2
e|------------------------------------------------------------------|
B|------------------------------------------------------------------|
G|------------------------------------------------------------------|
D|----------6-6---------6-6---------7-7---------7-------------------|
A|----------7-7---------7-7---------7-7---------7---7h9--7----------|
E|---7h8h9-------7h8h9-------7h8h9-------7h8h9--------------9-------|

              Creí cuando dijeron...
e|------------------------------------------------------------------|
B|------------------------------------------------------------------|
G|------------------------------------------------------------------|
D|----------6-6---------6-6---------7-7---------7-7-----------------|
A|----------7-7---------7-7---------7-7---------7-7---7h9--7--------|
E|---7h8h9-------7h8h9-------7h8h9-------7h8h9----------------9-----|

Este riff se repite y se toca hasta el coro.

El coro se puede tocar con acordes ordinarios o con power chords (5tas)
yo recomiendo que si es con acustica sea con acordes y la electrica 5tas
ya no esquematizare los acordes pues creo todos los conocemos.

Coro: (Procuren motear el rasgueo)

B                       C#m
Noo,  no quiero ser una sombra en el suelo
E                 A
quiero verme reflejado transparente,
B                                 C#m
en los espacios y los cielos a la orilla de tus senos
   E                         A
colgado como cuadro en las paredes de tu vientre
   B
perdido en tus paisajes
F#     G# A
Ahhhh  Ah Ah.

2° Verso yo lo toco asi ya que en mi banda soy la única guitarra si tienes
dos guitarras la lider hace de nuevo el riff y la 2a hace lo siguiente:

Nota: El segundo A de cada parrafo traten de tocarlo asi:

e|--5--|
B|--5--|
G|--6--|
D|--7--|
A|-----|
E|-----|

E             A                            C#m        A
Crei cuando dijeron que otros mundos no vivian y todo era lo que
   E
ves
                 A            C#m                    A
Pense que tu sonrisa era inagotable como el agua, hasta que
     E
casi se fue
               A                  C#m
Queria siempre mas, siempre lo siguiente y lo que
A             E
tuve lo olvide
E                A                 C#m         A
Crei que lo que amaba era en si tu carne, pero descrubi tu ser

B                 C#m
No quiero ser una sombra en el suelo
E                 A
quiero verme reflejado transparente,
B                                 C#m
en los espacios y los cielos a la orilla de tus senos
   E                         A
colgado como cuadro en las paredes de tu vientre
   B
vagando en tus rodillas
F#     G# A
Ahhhh  Ah Ah
F#     G# A
Ahhhh  Ah Ah

Aqui lo mismo si cuentan con dos liras una toca el riff y
la otra los acordes del segundo verso:

E A C#m A

Coro y final.

B                       C#m
Noo,  no quiero ser una sombra en el suelo
E                 A
quiero verme reflejado transparente,
B                                 C#m
en los espacios y los cielos a la orilla de tus senos
   E                         A
colgado como cuadro en las paredes de tu vientre
   B
perdido en tus paisajes
   C#m
creciendo por tus labios
   E                 A
llegar al cenit pasional
      B                          C#m
y estallar al universo en sangre y energía
E                 A        B
soy el cenit pasional, estallando entre tus piernas
   C#m
creciendo por tus labios,
   E                        A
llegando al punto maximo de comunión
   B
de comunión
C#m  E    A    B
yeah yeah yeah yeah
C#m  E    A    B
yeah yeah yeah yeah
C#m    E       A
uhuh uhuh
    B
estallando entre tus piernas
F#   G#  A
ahhh ahh ahh
F#   G#  A
ahhh ahh ahh

ouhh ohh

para terminar de nuevo este riff:

e|------------------------------------------------------------------|
B|------------------------------------------------------------------|
G|------------------------------------------------------------------|
D|----------6-6---------6-6---------7-7---------7-------------------|
A|----------7-7---------7-7---------7-7---------7---7h9--7----------|
E|---7h8h9-------7h8h9-------7h8h9-------7h8h9--------------9-------|
Espero este bien explicada para que no tengan dudas,
pues bueno rockeros
a darle y espero les salga cheeeda! un saludo...

Quedo a sus ordenes Uriel Melgarejo. kore_mg33@hotmail.com
ç
e---------7-5-4--------------7-5-4-------
B-------7------7-----------7-------7-----
G---4-7---------7-4----4-7-----------7-4-
D----------------------------------------
A----------------------------------------
E----------------------------------------

D                      Bm                   G           A  G           A
e--------------------------------------------------------------------------
B----------------------777-5-7---77-5-7-----8-8-8-8-5-3-2--8-8-8-8-5-3-2--
G-777-6-7---77-6-7-------------6--------6----------------------------------
D---------7--------7-------------------------------------------------------
A--------------------------------------------------------------------------
E--------------------------------------------------------------------------
D                     G
Usted se me llevó la vida
             D
y el alma entera
               C                       G
y se ha clavado aquí en mis huesos el dolor
                          D   B
con ésta angustia y esta pena
Em   D                A
usted, no sabe que siente perder
                 C
no sabe que se siente caer y caer
        D
en un abismo profundo y sin fe.

                      G                D
Usted se me llevó la vida y aquí me tiene
           C                      G
como una roca que el océano golpea
                       D    B
que ahí esta, pero no siente
Em  D                        A
usted . . , no sabe lo importante que fue
                 C
no sabe que su ausencia fue un trago de hiel

             D                    E
que se ha quedado clavada en mi piel
CORO

           Am                D
"Usted no sabe lo que es el amor
                G     D4/F#     Em
y el miedo que causa la desolación
           Am              D
usted no sabe que daño causo
               G    D4/F#     Em
como ha destrozado a éste corazón
                 Am
que tan solo palpitaba
                     D
con el sonido de su voz
                    G     D
con el sonido de su voz"

                       G             D
Usted se me llevó la vida todas mis ganas
           C                 G
y me ha dejado congelada la razón
                 D   B
y viva la desesperanza

Em   D                   A
usted, no sabe que se siente perder
                 C
no sabe que su adiós fue morirme de sed
          D                    E
que desgarró en éste cuerpo su ser

CORO

           Am                D
"Usted no sabe lo que es el amor
                G     D4/F#             Em
y el miedo que causa la desolación
          Am              D
usted no sabe que daño causo
               G     D4/F#   Em
como ha destrozado a éste corazón
Em                Am
que tan solo palpitaba
                  D
con el sonido de su voz
                     G
con el sonido de su voz"

PUENTE

  C                             D
Usted no sabe de verdad como se ama
Bm                 E
usted no sabe como he sufrido yo
   C                           D
usted es fría y su maldad me hiela el alma
  Bm                         E
usted lleno mi vida toda de dolor

           Am                D
"Usted no sabe lo que es el amor
                G     D4/F#             Em
y el miedo que causa la desolación
           Am             D
usted no sabe que daño causo
               G       D4/F#     Em
como ha destrozado a éste corazón
                Am
que tan solo palpitaba
                    D
con el sonido de su voz
                    G
con el sonido de su voz"

   D4/F#
Em 3
Bm 3
Gm 2
Dm 0
Am 0
Em 2
BEBER DE TU SANGRE
Este es el bueno hecho por el rush    
Intro solo                                                          
E---------------|----------|--------------------|------------|--------|
B----12/13------|----------|--------------------|------------|--------|
G-----------10--|-------10-|-12--10-------------|-10--10-----|--------|
D---------------|10/12-----|---------12--10--12-|---------10-|----10--|
A---------------|----------|--------------------|------------|/12-----|
E---------------|----------|--------------------|------------|--------|

Dm     A#          F          C
Tantas cosas en mi mente me aterran
E--1--|
B--3--|
G--2--|
D--0--|
A--0--|
E--0--|

  Dm     A#          F          C
 El pensar en todo y nada de una vez                                                          
E--------------------------|
B--------------------------|
G---12-10-------------10/--|
D----------12--10-12-------|
A--------------------------|
E--------------------------|

Dm     A#          F          C
El estar dormido el soñar con frio    
E--------------------------|
B--------------------------|
G---12-10-------------10---|
D----------12--10-12-------|
A--------------------------|
E--------------------------|

Dm     A#          F          C
El permanecer perdido buscandote                                              x2
E-----------------------------------------------------------------------|
B-----------------------------------------------------------------------|
G-----------------------------------------------------------------------|
D---3--2--3-----0-----3--2--3-----------3--2--3-----------3--2--3-3/5-/-|
A---------------------------------1--------------0----------------------|
E-----------------------------------------------------------------------|
Dm     A#          F          C
En los muros de mi casa tan fria
E--1--|
B--3--|
G--2--|
D--0--|
A--0--|
E--0--|

Dm     A#          F          C
Puedo pensar en algo para hacer calor
E--------------------------|
B-13-----------------------|
G----------10--12--10------|
D----10-12-----------------|
A--------------------------|
E--------------------------|

Dm     A#          F          C
El moverme me hace titubear y dudar
E--------------------|
B-11\10--------------|
G-------10-----------|
D----------12-10-12--|
A--------------------|
E--------------------|

El pensar en ti me hace recordar............
A#, Dm, C, Dm,   x4    estas pisadas se tocan solo una vez cada una y 
la ultima Dm no se toca en la cuarta vez

Podría gritar.........
Dm, A#, F, C,     x4     estas pisadas ya llevan ritmo

Al terminar  las cuatro veces entra de nuevo este solo
x2
E-----------------------------------------------------------------------|
B-----------------------------------------------------------------------|
G-----------------------------------------------------------------------|
D---3--2--3-----0-----3--2--3-----------3--2--3-----------3--2--3-3/5-/-|
A---------------------------------1--------------0----------------------|
E-----------------------------------------------------------------------|
El pensar en ti me hace recordar............
A#, Dm, C, Dm,   x4    

Podría gritar.........
Dm, A#, F, C,     x8   y de ahí se empieza e bajar el volumen     

Este es el solo que va junto con la voz

E-----------|---------------|-----------|----------------------------|
B-12/13-----|---------------|-----------|-------------11-11-10-------|
G-------10--|-----10--10----|-----10-10-|-10-10-12-10----------10----|
D-----------|-/10--------10-|-/10-------|-------------------------10-|
A-----------|---------------|-----------|----------------------------|
E-----------|---------------|-----------|----------------------------|

E/13­10­|­­­­­­­­­­­­­|­­­­­­­­­­|­13­­­­­­­­­­­13~~/­|­18­17­13­­12­
B-------|/13-15-15-13-|-10-13-13-|----15-13-15--------|--------------
G-------|-------------|----------|--------------------|--------------
D-------|-------------|----------|--------------------|--------------
A-------|-------------|----------|--------------------|--------------
E-------|-------------|----------|--------------------|--------------

­13­15­13­12­13­12­13­15­13­12­13­12­13­15­15~~~/17­15­­­­|­­­­­­10­­­­|
-------------------------------------------------------13-|/10-13---13-|
----------------------------------------------------------|------------|
----------------------------------------------------------|------------|
----------------------------------------------------------|------------|
----------------------------------------------------------|------------|

E-13----15----13----15-15/17-15-13-13-|----------------|
B----15----15----15-------------------|-13-13-10----10-|
G-------------------------------------|----------12----|
D-------------------------------------|----------------|
A-------------------------------------|----------------|
E-------------------------------------|----------------|

E---------------------------|
B-11-10---------------------|
G-------10------12----10----|
D------------13----13----10-|
A---------------------------|
E---------------------------|
Int: 3 veces

            MI                           SI                            DO#m
e|--0-----0-----0-----0--2--4--0--2-----2-----2-----5--4--2--0--4-----4---|
b|-----0-----0-----0-----------------0-----0-----0-----------------2-----2|
g|------------------------------------------------------------------------|
D|------------------------------------------------------------------------|
A|------------------------------------------------------------------------|
E|------------------------------------------------------------------------|

                     LA          SI
e|--4-----4--2--0--------0-----0------------------------------------------|
b|-----2-----------4--2-----2-----4-----4---------------------------------|
g|-----------------------------------4-----4------------------------------|
D|------------------------------------------------------------------------|
A|------------------------------------------------------------------------|
E|------------------------------------------------------------------------|

       DO#m
Gritar quién o cuál
           SI
Ahora da igual, te juro da igual
          DO#m
Que hagas bien o mal
               SI
Si es que al final

La gente se va y ahí estás
  LA
A ti
                DO#m
Que puedes arreglar mi vida
   LA
Capaz
                 SOL#m
Como eres de ser día a día
SI
Día a día
MI              SI
Tía, sin tu alegría
           DO#m
Seré un pringao
           LA       SI
Yo no me merezco la pena
MI            SI
Tía, sin tú valía
          DO#m
Caeré en picao
    LA     SI
Me quedaré solo

MI   SI   DO#m

    LA     SI
Me quedaré solo

Intro

      DO#m
Sabes bien, tal vez
             SI
No pueda cambiar

No vaya a cambiar jamás
     DO#m
Caer bien o mal
               SI
Se acerca el final

MI triste final
  LA
Y tú
                 DO#m
Que ansías controlar mi vida
    LA
LA paz
                  SOL#m
Con guerras son mi día a día
       SI
Día a día
MI              SI
Tía, sin tu alegría
           DO#m
Seré un pringao
           LA        SI
Yo no me merezco la pena
MI            SI
Tía, sin tú valía
          DO#m
Caeré en picao
   LA      SI
Me quedaré solo

MI   SI   DO#m

   LA      SI
Me quedaré solo

INTRO: 3 veces

        MI             SI
Sin un día, sin tu alegría
           DO#m
Seré un pringao
    LA     SI
Me quedaré solo
        MI           SI
Sin un día, sin tu valía
          DO#m
Caeré en picao
    LA     SI
Me quedaré solo
(Se repite 3 veces)
D         E        F#m
Perdi mi ojo de venado
D         E        F#m 
Nadie me va a protejer
D         E             F#m
Vuelo mi cuerpo entre tinieblas
D         E           F#m
Doña macabra me viene aver

A                    F#m
Por las noche me platica 
A                    F#m
de la magia de la soledad
A                  F#m
Me congela las orejas
A                   F#m   G A
Creo que me quiere llevar 

Em                      F
Hazme una limpia porfavor amor
Em                        F
Depojame de todo mal carnal 
Em                    F
Quema mi ramo por favor 
Em                        F
Antes que yo te queme ati a ti

solo

e|----7-8-7--------------12-12-12-12-13-12-10--------------------------------------15-13-12-10--|
B|-----------10-9-9/10-9---------------------13-15-12--12/13-12-10-------12-12-12--13-12-10--8--|
G|-7/9-------------------------------------------------------------11/12-12-12-12---------------|
D|----------------------------------------------------------------------------------------------|
A|----------------------------------------------------------------------------------------------|
E|----------------------------------------------------------------------------------------------|

D         E        F#m
Perdi mi ojo de venado 
D         E        F#m 
Soy un ser de obscuridad
D         E             F#m
Perdi mi vida en un rosario
D         E         F#m
Entre milagros del amor

Em                      F
Hazme una limpia porfavor amor
Em                        F
Depojame de todo mal carnal 
Em                    F
Quema mi ramo por favor 
Em                        F
Antes que yo te queme ati a ti
NOTAS UTILIZADAS

Gsus4/5 

e -------------------|
B ----------4--------|
G --------0---0------|
D ------1-------1----|
A ----3-----------3--|
E --3----------------|

INTRO:
e -------------------------|---------------------15----|
B --15p17p15--13-----------|--15p17p15--13-------------|
G ---------------14p16--12-|---------------14p16-------|
D -------------------------|---------------------------|
A -------------------------|---------------------------|
E -------------------------|---------------------------|

e -------------------------|---------------------15----|
B --15p17p15--13-----------|--15p17p15--13-------------|
G ---------------14p16--12-|---------------14p16-------|
D -------------------------|---------------------------|
A -------------------------|---------------------------|
E -------------------------|---------------------------|

Gsus4      G
Cierra tus ojos,
Gsus4    G
voy a contarte,
Gsus4    G
algo que nunca,
Gsus4   G
te dije antes.

Dm       Am         Dm
Ella atrapó mi corazón,
          F      G           C
ella es la dulce miel que me hizo,
G         C      G        Am
sentir distinto a los demás,
Em          D     Gsus4       G
algo cambio cuando estuve a su lado.

Gsus4  G
Hoy no recuerdo,
Gsus4   G
como podía,
Gsus4   G
sin conocerla,
Gsus4    G
pasar mi vida.

Dm         Am          Dm
Ya no me alcanza la razón,
            F      G          C
ya no me importa el mundo sin ella,
G           C     G    Am
ella es el sueño de un perdedor,
Em       D
que la encontró.
Gsus4            Em     C       D       A        Em    C     D
Y ahora puede existir,
     A       Em         C       D
y voy a existir,
     A       Em         C       D
y podré existir,
        A
por ella..

Solo

e --13p15p13------13-----------|--13p15p13-----13----------|
B ------------15-----13p15--13-|------------15----13p15----|
G -----------------------------|---------------------------|
D -----------------------------|---------------------------|
A -----------------------------|---------------------------|
E -----------------------------|---------------------------|

e --13p15p13------13--------------------------------|
B ------------15-----13p15--13----------------------|
G ------------------------------15--14--14p15p14--12|
D --------------------------------------------------|
A --------------------------------------------------|
E --------------------------------------------------|

e --13p15p13-----13------------|--13p15p13------13---------|
B -----------15------13p15--13-|------------15-----13p15---|
G -----------------------------|---------------------------|
D -----------------------------|---------------------------|
A -----------------------------|---------------------------|
E -----------------------------|---------------------------|

GUITARRA 1

e ------------------------------------------------------|
B --18p20p18--15--18------------------------------------|
G -------------------17p19--17--14p15--14--14p15p14--12-|
D ------------------------------------------------------|
A ------------------------------------------------------|
E ------------------------------------------------------|

GUITARRA 2

e --17p19p17--15--17------------------------------------|
B -------------------19p21--19-----------16h15--13--11--|
G -----------------------------14p16--14----------------|
D ------------------------------------------------------|
A ------------------------------------------------------|
E ------------------------------------------------------|

Dm       Am       Dm
Solo podemos caminar,
           F     G            C
bajo el caliente Sol del destino
G          C
Ella es el cielo,
G          Am
Ella es el mar,
Em      D       Gsus4        G    Em   G    Em      G
Ella le da el sentido a mi vida, a mi vida, a mi vida..
e|---0--------0-------0-------0------0-------0---0------------------------|
B|---5----5--------5-------5------5-------5------5------------------------|
G|---2------2----2---2---2---2--2---2---2---2----2------------------------|
D|---2-------------------------------------------2------------------------|
A|---0-------------------------------------------0------------------------|
E|------------------------------------------------------------------------|

e|-------4--------------------------------------------------------0-0-0---|
B|---5h6---6-5-3-6-5-3h5p3---5-3-----3-2-----2--------------------1-1-1---|
G|-------------------------6-----6-3-----3-2---3-2-0-3-2-0-3------2-2-2---|
D|----------------------------------------------------------------2-2-2---|
A|----------------------------------------------------------------0-0-0---|
E|----------------------------------------------------------------0-0-0---|

e|--------------------------------------------|
B|------5-6-5h6p5-----------------------------|
G|-5-7-------------7-5-4--4-5-7-5-4-5-4h5p4/2-|
D|--------------------------------------------|
A|--------------------------------------------|
E|--------------------------------------------|

e|----------------------------------|
B|----------------------------------|
G|----------------------------------|
D|-5-3-2h3p2--2-3-5-3-2-0-----------|
A|------------------------3-2-3/5---|
E|--------------------------------3-|

--------------------------------------------------------------------------

      LAm             SOL           LAm
e|----------------7-8-10----------7-7---------|
B|----10-10-10-10--------8-8-8-10-----10-10~~-|
G|-9------------------------------------------|
D|--------------------------------------------| Violin
A|--------------------------------------------|
E|--------------------------------------------|

e|-----5-7-8-7-5h7p5-----5--------------------|
B|---5---------------8-5---8-6-5--------------|
G|--------------------------------------------| Guitarra
D|--------------------------------------------|
A|--------------------------------------------|
E|--------------------------------------------|
      LAm             SOL          LAm
e|----------------7-8-10-------8-7------------|
B|----10-10-10-10--------8-8-8-----10~~-------|
G|-9------------------------------------------| Violin
D|--------------------------------------------|
A|--------------------------------------------|
E|--------------------------------------------|

e|--------------------------------------------|
B|----5-6-5-8-6-5h6p5---5-----5---------------|
G|--7-----------------7---7-5---7-5-4-5-7-5---| Guitarra
D|--------------------------------------------|
A|--------------------------------------------|
E|--------------------------------------------|
      DO                SOL      MIm            LAm
e|-12-12-13-12-15-13-12----------------10-10--------|
B|----------------------15-13-12-12-13-------13-13~-|
G|--------------------------------------------------| Violin
D|--------------------------------------------------|
A|--------------------------------------------------|
E|--------------------------------------------------|

e|--12-10-8---8-7h8p8-------------------------|
B|--13-12-10----------10-8--------------------|
G|--------------------------------------------| Guitarra
D|--------------------------------------------|
A|--------------------------------------------|
E|--------------------------------------------|
      DO                SOL      MIm      LAm
e|-12-12-13-12-15-13-12----------------------------|
B|----------------------15-13-12-12-10----10~~-----|
G|-------------------------------------12----------| Violin
D|-------------------------------------------------|
A|-------------------------------------------------|
E|-------------------------------------------------|

e|--------------------------------------------|
B|--------------------------------------------|
G|------4-5-4-5-5/7---------------------------| Guitarra
D|--5-7---------------------------------------|
A|--------------------------------------------|
E|--------------------------------------------|
LAm                                     SOL
Siento el calor de toda tu piel en mi cuerpo otra vez
LAm                FA   DO          SOL
Estrella fugaz enciende mi ser, misteriosa mujer

FA                       LAm
e|-5---5---5--5---5---5--5---5---5--5---5---5-----------------------------|
B|--6---6------6---6------5---5------5---5--------------------------------|
G|---5---5------5---5------5---5------5---5-------------------------------|
D|------------------------------------------------------------------------|
A|------------------------------------------------------------------------|
E|------------------------------------------------------------------------|
Con tu amor sensual cuanto me das

    SOL        REm                DO
e|--7---7---7--10-----10-----10---12-------13-12-----13-12----------------|
B|---8---8-------10-----10--------13-13---------13------------------------|
G|----7---7--------10-----10------12----12--------12----------------------|
D|------------------------------------------------------------------------|
A|------------------------------------------------------------------------|
E|------------------------------------------------------------------------|
Haz que mi sueño sea una_________verdad

   FA                    LAm
e|-5---5---5--5---5---5--5---5---5--5---5---5-----------------------------|
B|--6---6------6---6------5---5------5---5--------------------------------|
G|---5---5------5---5------5---5------5---5-------------------------------|
D|------------------------------------------------------------------------|
A|------------------------------------------------------------------------|
E|------------------------------------------------------------------------|
Dame tu alma hoy, haz el ritual

    SOL        REm                 DO
e|--7---7---7--10-----10-----10-------------------------------------------|
B|---8---8-------10-----10---------7--7/9-9~-9~---------------------------|
G|----7---7--------10-----10----------------------------------------------|
D|---------------------------------7--7/9-9~-9~---------------------------|
A|------------------------------------------------------------------------|
E|------------------------------------------------------------------------|
Llévame al mundo donde pueda soñar

LAm     DO                SOL          LAm
Uuuhh Debo saber si en verdad en algún lado estas
              DO    SOL­MIm      LAm­Riff1
Voy a buscar una señal, una canción
LAm   DO                  SOL           LAm
Uuuhh Debo saber si en verdad en algún lado estas
               DO       SOL­MIm     LAm­SOL­LAm
Solo el amor que tu me das me ayudara

      LAm             SOL
e|----------------7-8-10----------7-7---------|
B|----10-10-10-10--------8-8-8-10-----10-10~~-|
G|-9------------------------------------------| Violin
D|--------------------------------------------|
A|--------------------------------------------|
E|--------------------------------------------|

e|--------------------------------------------|
B|--------------------------------------------|
G|---4-5-5/7-5-7-7/9--------------------------| Guitarra
D|-7------------------------------------------|
A|--------------------------------------------|
E|--------------------------------------------|
      LAm             SOL
e|----------------7-8-10-------8-7------------|
B|----10-10-10-10--------8-8-8-----10~~-------|
G|-9------------------------------------------| Violin
D|--------------------------------------------|
A|--------------------------------------------|
E|--------------------------------------------|

e|--7-8----7-8-10-10/12-----------------------|
B|------10--------------10--------------------|
G|--------------------------------------------| Guitarra
D|--------------------------------------------|
A|--------------------------------------------|
E|--------------------------------------------|
      DO                SOL      MIm            LAm
e|-12-12-13-12-15-13-12----------------10-10--------|
B|----------------------15-13-12-12-13-------13-13~-|
G|--------------------------------------------------| Violin
D|--------------------------------------------------|
A|--------------------------------------------------|
E|--------------------------------------------------|

e|--------------------------------------------|
B|--6-8-8p5-----------------------------------|
G|----------5-7-7p5---------------------------| Guitarra
D|--------------------------------------------|
A|--------------------------------------------|
E|--------------------------------------------|
      DO                SOL      MIm      LAm
e|-12-12-13-12-15-13-12----------------------------|
B|----------------------15-13-12-12-10----10~~-----|
G|-------------------------------------12----------| Violin
D|-------------------------------------------------|
A|-------------------------------------------------|
E|-------------------------------------------------|

Al amanecer tu imagen se va, misteriosa mujer
Dejaste en mi lujuria total, hermosa y sensual
Corazón sin dios, dame un lugar
En ese mundo tibio, casi irreal
Deberé buscar una señal
En aquel camino por el que vas

Debo saber si en verdad en algún lado estas
Voy a buscar una señal, una canción
Debo saber si en verdad en algún lado estas
Solo el amor que tu me das me ayudara

e|-----5-7-8--8p7----7----------------------------------------------------|
B|---5------------10---8--6-8-6p5---5-------------------------------------|
G|--------------------------------7-----------------5/7----7/9------------|
D|----------------------------------------------7-9-----10-----7----------|
A|--------------------------------------------7---------------------------|
E|--------------------------------------5-7-8-----------------------------|

e|------------------------------------------------------------------------|
B|------------------------------------------------------------------------|
G|---------7h9p7---------7------------------------------------------------|
D|--7-9-10-------10-9-10---10p9-7h9p7-5-7-7-5h7p5-------------------------|
A|------------------------------------------------8-7---------------------|
E|----------------------------------------------------8-7-5---------------|

e|--10-12-13-17-----------10-12-13--10-12-13-12h13p12--10-12-10-----------|
B|--10-------17--10-12-13---------------------------------------13-12-13--|
G|--10-------17-----------------------------------------------------------|
D|------------------------------------------------------------------------|
A|------------------------------------------------------------------------|
E|------------------------------------------------------------------------|
e|-10-------------------------------------10-8h10p8-7-10-8h10p8-7-10-7-8--|
B|----13~---12h13p12-10-12-10h12p10-8-10----------------------------------|
G|------------------------------------------------------------------------|
D|------------------------------------------------------------------------|
A|------------------------------------------------------------------------|
E|------------------------------------------------------------------------|

e|-10-7-8-10-7-8-10-12-8-10-12-12/15------10-8--10-7--8-7-----------------|
B|-----------------------------------(12)-12-10-12-9------10-9------------|
G|------------------------------------------------------------------------|
D|-----------------------------------------------------------------5-5/7--|
A|-------------------------------------------------------------7-8--------|
E|------------------------------------------------------------------------|

FA                                 LAm
Tu presencia marcó en mi vida el amor, lo sé
SOL              REm                DO­Riff 2
Es difícil pensar en vivir ya sin vos
FA                          LAm
Corazón sin dios, dame un lugar
       SOL     REm­MI
En ese mundo tibio, casi irreal

Debo saber si en verdad en algún lado estas
Voy a buscar una señal, una canción
Debo saber si en verdad en algún lado estas
Solo el amor que tu me das me ayudara

      LAm             SOL           LAm
e|----------------7-8-10----------7-7---------|
B|----10-10-10-10--------8-8-8-10-----10-10~~-|
G|-9------------------------------------------|
D|--------------------------------------------| Violin
A|--------------------------------------------|
E|--------------------------------------------|

e|--------------------------------------------|
B|--------------------------------------------|
G|--------------------------------------------| Guitarra
D|-------2-3-5-3-2h3p2---2-3-2----------------|
A|-0-2-3---------------5----------------------|
E|--------------------------------------------|

      LAm             SOL          LAm
e|----------------7-8-10-------8-7------------|
B|----10-10-10-10--------8-8-8-----10~~-------|
G|-9------------------------------------------| Violin
D|--------------------------------------------|
A|--------------------------------------------|
E|--------------------------------------------|

ohhhhhh no no nooooooooo!!!!

      DO                SOL      MIm            LAm
e|-12-12-13-12-15-13-12----------------10-10--------|
B|----------------------15-13-12-12-13-------13-13~-|
G|--------------------------------------------------| Violin
D|--------------------------------------------------|
A|--------------------------------------------------|
E|--------------------------------------------------|

e|-----5-7-8-7-5h7p5-----5-------------------------|
B|---5---------------8-5---8-6-5-------------------|
G|-------------------------------------------------| Guitarra
D|-------------------------------------------------|
A|-------------------------------------------------|
E|-------------------------------------------------|

      DO                SOL      MIm      FA­REm
e|-12-12-13-12-15-13-12----------------------------|
B|----------------------15-13-12-12-10----10~~-----|
G|-------------------------------------12----------| Violin
D|-------------------------------------------------|
A|-------------------------------------------------|
E|-------------------------------------------------|

             Lam   ­­­­­­­aqui solo es un rasgueo
ohhhhhhh ohh uuu

e|----------5-7-8-5h7p5------------------------------|
B|--------5-------------8-6-5-8-6-5---5--------------|
G|----4-5---------------------------7----------------|
D|--7------------------------------------------------|
A|--------------------------------------0------------|
E|---------------------------------------------------|
  Riff 1            Riff 2
e|-------------| e|--12--10----|
B|-------------| B|--13--------|
G|-------------| G|--12--------|
D|-------------| D|------------|
A|-0-2-3-2-0---| A|------------|
E|-------------| E|------------|
INTRO

e ­­­­­­­­­­­­­­­9­­­­­­­­­­­­­­­­­­­­­­­­­­­­­| x 2
B ­­­­­­­­­­­­9­­­­9­­­­9­­­­­­­­­­­­­­­­­­12~­|
G ­­­­­­­­11­­­­­­­­­11­­­11­­­­­­­­9­­11­­­­­­|
D ­­­­­­9­­­­­­­­­­­­­­­­­­­­­­­­­9­­­­­­­­­­­­|
A ­­­­­­­­­­­­­­­­­­­­­­­­­­­­­­­­­­­­­­­­­­­­­|
E ­­­0­­­­­­­­­­­­­­­­­­­­­­­­­0­­­­­­­­­­­­­­­|

VERSO.

   Ayer me dijo un ave que volara          por donde no hay
e ­­­­­­­­­­­­­0­­­­­­­­­­­­­0­­|­­­­­­­­­­­­­0­­­­­­­­­­­­­4­­|
B ­­­­­­­­­­0­­­­­­­­­­­­­0­­­­­|­­­­­­­­­­0­­­­­­­­­­­­­4­­­­­|
G ­­­­­­­6­­­­­­­­­­­­­6­­­­­­­­|­­­­­­­1­­­­­­­­­­­­­4­­­­­­­­|
D ­­­­­6­­­­­­­­­­­­­6­­­­­­­­­­|­­­­­2­­­­­­­­­­­­­6­­­­­­­­­­|
A ­­4­­­­­­­­­­­­­4­­­­­­­­­­­­­|­­­­­­­­­­­­­­­­6­­­­­­­­­­­­­|
E ­­­­­­­­­­­­­­­­­­­­­­­­­­­­­­|­­0­­­­­­­­­­­­­­­­­­­­­­­­­­­|

      ardor,                         que lo  sufrido no resusita
e ­­­­­­­­­­­­­0­­­­­­­­­­­­­0­­|­­­­­­­­­­­­­0­­­­­­­­­­­­­0­­|
B ­­­­­­­­­­0­­­­­­­­­­­­­0­­­­­|­­­­­­­­­­0­­­­­­­­­­­­­0­­­­­|
G ­­­­­­­6­­­­­­­­­­­­­6­­­­­­­­|­­­­­­­6­­­­­­­­­­­­­6­­­­­­­­|
D ­­­­­6­­­­­­­­­­­­­6­­­­­­­­­­|­­­­­6­­­­­­­­­­­­­6­­­­­­­­­­|
A ­­4­­­­­­­­­­­­­4­­­­­­­­­­­­­|­­4­­­­­­­­­­­­­4­­­­­­­­­­­­­|
E ­­­­­­­­­­­­­­­­­­­­­­­­­­­­­­|­­­­­­­­­­­­­­­­­­­­­­­­­­­­­­|

    sueños  y en rezos     nunca        murio
e ­­­­­­­­­­­­­0­­­­­­­­­­­­­4­­|­­­­­­­­­­­­­0­­­­­­­­­­­­­0­­|
B ­­­­­­­­­­0­­­­­­­­­­­­­4­­­­­|­­­­­­­­­­0­­­­­­­­­­­­­0­­­­­|
G ­­­­­­­1­­­­­­­­­­­­­4­­­­­­­­|­­­­­­­6­­­­­­­­­­­­­6­­­­­­­­|
D ­­­­­2­­­­­­­­­­­­­6­­­­­­­­­­|­­­­­6­­­­­­­­­­­­­6­­­­­­­­­­|
A ­­­­­­­­­­­­­­­­6­­­­­­­­­­­­­|­­4­­­­­­­­­­­­­4­­­­­­­­­­­­­|
E ­­0­­­­­­­­­­­­­­­­­­­­­­­­­­­|­­­­­­­­­­­­­­­­­­­­­­­­­­­­­­|

CORO

      Que saque el aire de mis       ojos,
e ­­­­­­­­­­­­­0­­­­­­­­­­­­­0­­|­­­­­­­­­­­­­0­­­­­­­­­­­­­0­­|
B ­­­­­­­­­­0­­­­­­­­­­­­­0­­­­­|­­­­­­­­­­0­­­­­­­­­­­­­0­­­­­|
G ­­­­­­­6­­­­­­­­­­­­­6­­­­­­­­|­­­­­­­9­­­­­­­­­­­­­9­­­­­­­­|
D ­­­­­6­­­­­­­­­­­­­6­­­­­­­­­­|­­­­­9­­­­­­­­­­­­­9­­­­­­­­­­|
A ­­0­­­­­­­­­­­­­0­­­­­­­­­­­­­|­­­­­­­­­­­­­­­­­­­­­­­­­­­­­­|
E ­­­­­­­­­­­­­­­­­­­­­­­­­­­­­­|­­7­­­­­­­­­­­­­7­­­­­­­­­­­­­|
      Que abrace al miedo con tus    sueños,
e ­­­­­­­­­­­­­0­­­­­­­­­­­­­0­­|­­­­­­­­­­­­­0­­­­­­­­­­­­­0­­|
B ­­­­­­­­­­0­­­­­­­­­­­­­0­­­­­|­­­­­­­­­­0­­­­­­­­­­­­­0­­­­­|
G ­­­­­­­6­­­­­­­­­­­­­6­­­­­­­­|­­­­­­­9­­­­­­­­­­­­­9­­­­­­­­|
D ­­­­­6­­­­­­­­­­­­­6­­­­­­­­­­|­­­­­9­­­­­­­­­­­­­9­­­­­­­­­­|
A ­­0­­­­­­­­­­­­­0­­­­­­­­­­­­­|­­­­­­­­­­­­­­­­­­­­­­­­­­­­­­|
E ­­­­­­­­­­­­­­­­­­­­­­­­­­­­­­|­­7­­­­­­­­­­­­­7­­­­­­­­­­­­­|

      Que sea un guerrero de     sangre       para que nadie
e ­­­­­­­­­­­­­0­­­­­­­­­­­­­0­­|­­­­­­­­­­­0­­­­­­­­­­­­­­­­­­|
B ­­­­­­­­­­0­­­­­­­­­­­­­0­­­­­|­­­­­­­­­­­0­­­­­­­­­­­­­­­­­­|
G ­­­­­­­6­­­­­­­­­­­­­6­­­­­­­­|­­­­­­­­­­­9­­­­­­­­­­­­­­­­­­|
D ­­­­­6­­­­­­­­­­­­­6­­­­­­­­­­|­­­­­­­­­­­9­­­­­­­­­­­­­­­­­­|
A ­­0­­­­­­­­­­­­­0­­­­­­­­­­­­­|­­­­­­­­­­­X­­­­­­­­­­­­­­­­­­|
E ­­­­­­­­­­­­­­­­­­­­­­­­­­­­­­|­­7­­7­­7­­7­­­­­­­­­­­­­­­­­­|

     Te haga daño
e ­­­­­­­­­­­­­­­­­­­(7)­­­­­­­­|
B ­­­­­­­­­­­­­­­­(7)­­­­­­­­­­­|
G ­­­­­­­­­­­­­­(7)­(armónicos)­|( si no les sale el sonido en
D ­­­­­­­­­­­­(7)­­­­­­­­­­­­­­­|  armonicos, pueden pisar
A ­­­­­­­­­­­­­­­­­­­­­­­­­­­­­­|  las cuerdas y suena casi
E ­­7­8­9­­­­­­­­­­­­­­­­­­­­­­­|   igual)

SOLO: el solo no me lo se en armonicos pero este es un
parecido muy bueno(creo q ya esta transcrito en el anterior)
de todas formas lo pongo(no es tan dificil si lo practican)

e ­­­­­7­­­­­­­­­­­­­9­­7­­­­­­­­­­­­­9­­12­­­16­­12­­­­­9­­­11­|
B ­­­9­­­­9­­­­­­­7­­­­­­­­9­­­­­­­­9­­­­­­­­­­­­­­­­­9­­­­­­­­­|
G ­9­­­­­­­­9­­8­­­­­­­­­­­­­­­6­­­­­­­­­­­­­­­­­­­­­­­­­­­­­­­­|
D ­­­­­­­­­­­­­­­­­­­­­­­­­­­­­­­­­­­­­­­­­­­­­­­­­­­­­­­­­­­­­­|
A ­­­­­­­­­­­­­­­­­­­­­­­­­­­­­­­­­­­­­­­­­­­­­­­­­­­­­­­­­­­­­­|
E ­­­­­­­­­­­­­­­­­­­­­­­­­­­­­­­­­­­­­­­­­­­­­­­­­­­­­­­­­­­­­­|

e ­­­­­7­­­­­­­­­­­­­9­­7­­­­­­­­­­­­­9­­12­­9­­­­­9­­­­­­­­­­­­|
B ­­­9­­­­9­­­­­­­7­­­­­­­­9­­­­­­­­9­­­­­­­­­­­9­­­­­9­­­­­­­­­|
G ­9­­­­­­­­9­­8­­­­­­­­­­­­­­­6­­­­­­­­­­­­­­­­­­­­­­­­­­­­­­­­|
D ­­­­­­­­­­­­­­­­­­­­­­­­­­­­­­­­­­­­­­­­­­­­­­­­­­­­­­­­­­­­­­|
A ­­­­­­­­­­­­­­­­­­­­­­­­­­­­­­­­­­­­­­­­­­­­­­­­­­­­­­­­­­­­­­|
E ­­­­­­­­­­­­­­­­­­­­­­­­­­­­­­­­­­­­­­­­­­­­­­­­­­­­­­­­­­­­­­|
despues se repite el verso

    Ayer me dijo un ave que volara          hasta desinte­
e ­­­­­­­­­­­­­0­­­­­­­­­­­­­0­­|­­­­­­­­­­­­­0­­­­­­­­­­­­­4­­|
B ­­­­­­­­­­0­­­­­­­­­­­­­0­­­­­|­­­­­­­­­­0­­­­­­­­­­­­­4­­­­­|
G ­­­­­­­6­­­­­­­­­­­­­6­­­­­­­­|­­­­­­­1­­­­­­­­­­­­­4­­­­­­­­|
D ­­­­­6­­­­­­­­­­­­­6­­­­­­­­­­|­­­­­2­­­­­­­­­­­­­6­­­­­­­­­­|
A ­­4­­­­­­­­­­­­­4­­­­­­­­­­­­­|­­­­­­­­­­­­­­­­6­­­­­­­­­­­­­|
E ­­­­­­­­­­­­­­­­­­­­­­­­­­­­­­|­­0­­­­­­­­­­­­­­­­­­­­­­­­­­­|

      grarme                             que la distancia no es
e ­­­­­­­­­­­­­0­­­­­­­­­­­­­0­­|­­­­­­­­­­­­­0­­­­­­­­­­­­­0­­|
B ­­­­­­­­­­0­­­­­­­­­­­­­0­­­­­|­­­­­­­­­­0­­­­­­­­­­­­­0­­­­­|
G ­­­­­­­6­­­­­­­­­­­­­6­­­­­­­­|­­­­­­­6­­­­­­­­­­­­­6­­­­­­­­|
D ­­­­­6­­­­­­­­­­­­­6­­­­­­­­­­|­­­­­6­­­­­­­­­­­­­6­­­­­­­­­­|
A ­­4­­­­­­­­­­­­­4­­­­­­­­­­­­­|­­4­­­­­­­­­­­­­4­­­­­­­­­­­­­|
E ­­­­­­­­­­­­­­­­­­­­­­­­­­­­­­|­­­­­­­­­­­­­­­­­­­­­­­­­­­­­­|

cansancio     es  fuerza, eres          tu
e ­­­­­­­­­­­­­0­­­­­­­­­­­­­4­­|­­­­­­­­­­­­­0­­­­­­­­­­0­­­­­|
B ­­­­­­­­­­0­­­­­­­­­­­­­4­­­­­|­­­­­­­­­­0­­­­­­­­­­­­­0­­­­­|
G ­­­­­­­1­­­­­­­­­­­­­4­­­­­­­­|­­­­­­­6­­­­­­­­­­­­­6­­­­­­­­|
D ­­­­­2­­­­­­­­­­­­­6­­­­­­­­­­|­­­­­6­­­­­­­­­­­­­6­­­­­­­­­­|
A ­­­­­­­­­­­­­­­­6­­­­­­­­­­­­­|­­4­­­­­­­­­­­­­4­­­­­­­­­­­­­|
E ­­0­­­­­­­­­­­­­­­­­­­­­­­­­­­|­­­­­­­­­­­­­­­­­­­­­­­­­­7/5­|

repetimos el coro de nuevo

      Que saque el aire de mis    ojos,
e ­­­­­­­­­­­­­0­­­­­­­­­­­­­0­­|­­­­­­­­­­­­­0­­­­­­­­­­­­­0­­|
B ­­­­­­­­­­0­­­­­­­­­­­­­0­­­­­|­­­­­­­­­­0­­­­­­­­­­­­­0­­­­­|
G ­­­­­­­6­­­­­­­­­­­­­6­­­­­­­­|­­­­­­­9­­­­­­­­­­­­­9­­­­­­­­|
D ­­­­­6­­­­­­­­­­­­­6­­­­­­­­­­|­­­­­9­­­­­­­­­­­­­9­­­­­­­­­­|
A ­­0­­­­­­­­­­­­­0­­­­­­­­­­­­­|­­­­­­­­­­­­­­­­­­­­­­­­­­­­­­|
E ­­­­­­­­­­­­­­­­­­­­­­­­­­­­­­|­­7­­­­­­­­­­­­­7­­­­­­­­­­­­­|

      Que abrace al miedo con tus sueños,
e ­­­­­­­­­­­­­0­­­­­­­­­­­­­0­­|­­­­­­­­­­­­­0­­­­­­­­­­­­­0­­|
B ­­­­­­­­­­0­­­­­­­­­­­­­0­­­­­|­­­­­­­­­­0­­­­­­­­­­­­­0­­­­­|
G ­­­­­­­6­­­­­­­­­­­­­6­­­­­­­­|­­­­­­­9­­­­­­­­­­­­­9­­­­­­­­|
D ­­­­­6­­­­­­­­­­­­­6­­­­­­­­­­|­­­­­9­­­­­­­­­­­­­9­­­­­­­­­­|
A ­­0­­­­­­­­­­­­­0­­­­­­­­­­­­­|­­­­­­­­­­­­­­­­­­­­­­­­­­­­­­|
E ­­­­­­­­­­­­­­­­­­­­­­­­­­­­­­|­­7­­­­­­­­­­­­­7­­­­­­­­­­­­­|
      Que sea un guerrero de     sangre         para que nadie
e ­­­­­­­­­­­­­0­­­­­­­­­­­­­0­­|­­­­­­­­­­­0­­­­­­­­­­­­­­­­­­|
B ­­­­­­­­­­0­­­­­­­­­­­­­0­­­­­|­­­­­­­­­­­0­­­­­­­­­­­­­­­­­­|
G ­­­­­­­6­­­­­­­­­­­­­6­­­­­­­­|­­­­­­­­­­­9­­­­­­­­­­­­­­­­­­|
D ­­­­­6­­­­­­­­­­­­­6­­­­­­­­­­|­­­­­­­­­­­9­­­­­­­­­­­­­­­­­­|
A ­­0­­­­­­­­­­­­­0­­­­­­­­­­­­­|­­­­­­­­­­­X­­­­­­­­­­­­­­­­­­|
E ­­­­­­­­­­­­­­­­­­­­­­­­­­­­­­|­­7­­7­­7­­7­­­­­­­­­­­­­­­­­­|

  Te haga daño
e ­­­­­­­­­­­­­­­­­­­(7)­­­­­­­­|
B ­­­­­­­­­­­­­­­­(7)­­­­­­­­­­­|
G ­­­­­­­­­­­­­­(7)­(armónicos)­|
D ­­­­­­­­­­­­(7)­­­­­­­­­­­­­­­|
A ­­­­­­­­­­­­­­­­­­­­­­­­­­­­­­|
E ­­7­8­9­­­­­­­­­­­­­­­­­­­­­­­|

aqui va el intermedio q es precticamente lo mismo

e ­­­­­­­­­­­­­0­­­­­­­­­­­­­0­­|­­­­­­­­­­­­­0­­­­­­­­­­­­­4­­|
B ­­­­­­­­­­0­­­­­­­­­­­­­0­­­­­|­­­­­­­­­­0­­­­­­­­­­­­­4­­­­­|
G ­­­­­­­6­­­­­­­­­­­­­6­­­­­­­­|­­­­­­­1­­­­­­­­­­­­­4­­­­­­­­|
D ­­­­­6­­­­­­­­­­­­­6­­­­­­­­­­|­­­­­2­­­­­­­­­­­­­6­­­­­­­­­­|
A ­­4­­­­­­­­­­­­­4­­­­­­­­­­­­­|­­­­­­­­­­­­­­­­6­­­­­­­­­­­­­|
E ­­­­­­­­­­­­­­­­­­­­­­­­­­­­­­|­­0­­­­­­­­­­­­­­­­­­­­­­­­­­­|

e ­­­­­­­­­­­­­0­­­­­­­­­­­­­0­­|­­­­­­­­­­­­­0­­­­­­­­­­­­­0­­|
B ­­­­­­­­­­0­­­­­­­­­­­­­0­­­­­|­­­­­­­­­­0­­­­­­­­­­­­­0­­­­­|
G ­­­­­­­6­­­­­­­­­­­­­6­­­­­­­­|­­­­­­­6­­­­­­­­­­­­­6­­­­­­­­|
D ­­­­­6­­­­­­­­­­­­­6­­­­­­­­­­|­­­­­6­­­­­­­­­­­­­6­­­­­­­­­­|
A ­­4­­­­­­­­­­­­­4­­­­­­­­­­­­­|­­4­­­­­­­­­­­­­4­­­­­­­­­­­­­|
E ­­­­­­­­­­­­­­­­­­­­­­­­­­­­­­|­­­­­­­­­­­­­­­­­­­­­­­­­­­­­­|

e ­­­­­­­­­­­­­0­­­­­­­­­­­­­4­­|­­­­­­­­­­­­­0­­­­­­­­­­0­­­­­|
B ­­­­­­­­­­0­­­­­­­­­­­­­4­­­­­|­­­­­­­­­­0­­­­­­­­­­­­­0­­­­­|
G ­­­­­­­1­­­­­­­­­­­­­4­­­­­­­­|­­­­­­­6­­­­­­­­­­­­­6­­­­­­­­|
D ­­­­­2­­­­­­­­­­­­­6­­­­­­­­­­|­­­­­6­­­­­­­­­­­­­6­­­­­­­­­­|
A ­­­­­­­­­­­­­­­­6­­­­­­­­­­­­­|­­4­­­­­­­­­­­­­4­­­­­­­­­­­­­|
E ­­0­­­­­­­­­­­­­­­­­­­­­­­­­­­|­­­­­­­­­­­­­­­­­­­­­­­­­­7/5­|

repetimos coro

      que saque el aire de mis    ojos,
e ­­­­­­­­­­­­­0­­­­­­­­­­­­­0­­|­­­­­­­­­­­­­0­­­­­­­­­­­­­0­­|
B ­­­­­­­­­­0­­­­­­­­­­­­­0­­­­­|­­­­­­­­­­0­­­­­­­­­­­­­0­­­­­|
G ­­­­­­­6­­­­­­­­­­­­­6­­­­­­­­|­­­­­­­9­­­­­­­­­­­­­9­­­­­­­­|
D ­­­­­6­­­­­­­­­­­­­6­­­­­­­­­­|­­­­­9­­­­­­­­­­­­­9­­­­­­­­­­|
A ­­0­­­­­­­­­­­­­0­­­­­­­­­­­­­|­­­­­­­­­­­­­­­­­­­­­­­­­­­­­­|
E ­­­­­­­­­­­­­­­­­­­­­­­­­­­­­­|­­7­­­­­­­­­­­­­7­­­­­­­­­­­­­|

      que abrace al miedo     con tus sueños,
e ­­­­­­­­­­­­­0­­­­­­­­­­­­­0­­|­­­­­­­­­­­­­0­­­­­­­­­­­­­0­­|
B ­­­­­­­­­­0­­­­­­­­­­­­­0­­­­­|­­­­­­­­­­0­­­­­­­­­­­­­0­­­­­|
G ­­­­­­­6­­­­­­­­­­­­­6­­­­­­­­|­­­­­­­9­­­­­­­­­­­­­9­­­­­­­­|
D ­­­­­6­­­­­­­­­­­­­6­­­­­­­­­­|­­­­­9­­­­­­­­­­­­­9­­­­­­­­­­|
A ­­0­­­­­­­­­­­­­0­­­­­­­­­­­­­|­­­­­­­­­­­­­­­­­­­­­­­­­­­­­­|
E ­­­­­­­­­­­­­­­­­­­­­­­­­­­­­­|­­7­­­­­­­­­­­­­7­­­­­­­­­­­­­|

      que sea un guerrero de     sangre         para que nadie
e ­­­­­­­­­­­­­0­­­­­­­­­­­­­0­­|­­­­­­­­­­0­­­­0­­­­­­­­­­­­­­|
B ­­­­­­­­­­0­­­­­­­­­­­­­0­­­­­|­­­­­­­­­­0­­­­0­­­­­­­­­­­­­­|
G ­­­­­­­6­­­­­­­­­­­­­6­­­­­­­­|­­­­­­­­­­9­­­­9­­­­­­­­­­­­­­|
D ­­­­­6­­­­­­­­­­­­­6­­­­­­­­­­|­­­­­­­­­­9­­­­9­­­­­­­­­­­­­­|
A ­­0­­­­­­­­­­­­­0­­­­­­­­­­­­­|­­­­­­­­­­X­­­­X­­­­­­­­­­­­­­|
E ­­­­­­­­­­­­­­­­­­­­­­­­­­­­­­|­­7­­7­­7­7—­7­7­­­­­­­­­­­­­­|

  te haga daño                           para que nadie te haga
e ­­­­­­­­­­­0­­­0­0­­0­0­0­­­­­|­­­­­­­­­­­­­0­­­­­­­­­­­­­0­­|
B ­­­­­­­­­­­0­­­0­0­­0­0­0­­­­­|­­­­­­­­­­0­­­­­­­­­­­­­0­­­­­|
G ­­­­­­­­­­­9­­­9­9­­9­9­0­­­­­|­­­­­­­6­­­­­­­­­­­­­9­­­­­­­­|
D ­­­­­­­­­­­9­­­9­9­­9­9­9­­­­­|­­­­­6­­­­­­­­­­­­­9­­­­­­­­­­|
A ­­­­­­­­­­­X­­­X­X­­X­X­X­­­­­|­­0­­­­­­­­­­­­­­­­­­­­­­­­­­­|
E ­­7­8­9­­9­9­9­­­­­­9­9­9—7/5­|­­­­­­­­­­­­­­­­7­­­­­­­­­­­­­|

       daño                              para que nadie te haga
e ­­­­­­­­­­­­­0­­­­­­­­­­0­­­­­|­­­­­­­­­­­­­0­­­­­­­­­­­­­0­­|
B ­­­­­­­­­­0­­­­­­­­­­­­­0­­­­­|­­­­­­­­­­0­­­­­­­­­­­­­0­­­­­|
G ­­­­­­­9­­­­­­­­­­­­­9­­­­­­­­|­­­­­­­6­­­­­­­­­­­­­9­­­­­­­­|
D ­­­­­9­­­­­­­­­­­­­9­­­­­­­­­­|­­­­­6­­­­­­­­­­­­­9­­­­­­­­­­|
A ­­­­­­­­­­­­­­­­­­­­­­­­­­­­­­|­­0­­­­­­­­­­­­­­­­­­­­­­­­­­­|
E ­­9­­­­­­­­­­­­­9­­­­­­­­­7/5­|­­­­­­­­­­­­­­­­7­­­­­­­­­­­­­|

      daño                                   para que nadie
e ­­­­­­­­­0­­­­­­­0­­­­­­­0­­­­|­­­­­­­­­­­­­0­­­­­­­­­­­­­­­­|
B ­­­­­­­­­0­­­­­­­0­­­­­­­0­­­­|­­­­­­­­­­0­­­­­­­­­­­­­0­­­­­|
G ­­­­­­­­­9­­­­­­­9­­­­­­­9­­­­|­­­­­­­6­­­­­­­­­­­­­9­­­­­­­­|
D ­­­­­­­­­9­­­­­­­9­­­­­­­9­­­­|­­­­­6­­­­­­­­­­­­­9­­­­­­­­­­|
A ­­­­­­­­­X­­­­­­­X­­­­­­­X­­­­|­­0­­­­­­­­­­­­­­­­­­­­­­­­­­­|
E ­9­­9­­9­9—­9­­9­9­­9­­9­9­7/5|­­­­­­­­­­­­­­­­7­­­­­­­­­­­­­|

     te haga daño
e ­­­­­­­­­­­­­­­­­­­(7)­­­­­­­­|
B ­­­­­­­­­­­­­­­­(7)­­­­­­­­­­­|
G ­­­­­­­­­­­­­­(7)­(armónicos)­|
D ­­­­­­­­­­­­(7)­­­­­­­­­­­­­­­|
A ­­­­­­­­­­­­­­­­­­­­­­­­­­­­­­|
E ­­7­8­9­­­­­­­­­­­­­­­­­­­­­­­|
Gracias Caifanes por esos años de gloria con sus rolas.

Intro:
E|---------------------------------------------
B|---------------------------------------------
G|-9/11-11-9---12~---------------11/9-9/11-9---
D|----------12----11-12-11-9-7-7------------12-
A|---------------------------------------------
E|---------------------------------------------

E|---------------------------14-12-10/10--|
B|--------------10-12-12/10---------------|
G|-9/11/9--12~12-----------12-------------|
D|----- 12-------------------------------|
A|----------------------------------------|
E|----------------------------------------|

D                  G       A
  Cuando veo a través del vaso
D          G         A
  veo a través del tiempo
F#m            G           A
  donde los sentidos se dislocan
F#m           G           A
  donde los temores se evaporan.

D              G         A
  Y aprovecho para desdoblarme
D         G       A
  para salir del vaso
F#m         G              A
  con las paredes sudo tu rastro
F#m        G               A
  con la memoria busco tu rostro.

F     C       G
  Y no se por que
F          C             G
  no me importa saber por que.
G
  No dejes que
                Am
  nos coma el diablo amor
                Bm
  que se trague tu calor
            C
  que eructe mi dolor.

            G
  No dejes que
                Am
  nos coma el diablo amor
                Bm
  que se trague tu calor
            C
  que eructe mi dolor.

( aqui va este riff )
E|-------10-------------|
B|----------10----------|
G|--9/11-------11/9-----|
D|------------------12~-|
A|----------------------|
E|----------------------|

D                  G       A
  Cuando veo a través del humo
D           G               A
  me voy volando y tú eres mi guía
F#m          G                  A
  entre los mundos nos haremos viejos
F#m            G                  A
  donde algún día estaremos tranquilos.

 F     C       G
  Y no se por que
F          C             G
  no me importa saber por que.

G
  No dejes que
                Am
  nos coma el diablo amor
                Bm
  que se trague tu calor
            C
  que eructe mi dolor.
          G
  No dejes que
                Am
  nos coma el diablo amor
                Bm
  que se trague tu calor
            C
  que eructe mi dolor.

solo:

E|------10----------------10-12-12/14^14-14/12-12-12/10-10-10/9--9--9-
B|--------10------------10------------------------------------ -10-10-
G|-9/11-----11/9----- 11----------------------------------------------
D|---------------12~12------------------------------------------------
A|--------------------------------------------------------------------
E|--------------------------------------------------------------------

E|--9/7-7-7-------------------------------------------------------------
B|-10/9-9-9/8-8---------------------------------------------------------
G|-------------/11~9~11~11/9-11-11-11--9--9--9-----9----9---------------
D|------------------------- -12-12-12-11-11-11---11---11---11-12-11-----
A|---------------------------------------------12---12---12--------12/9-
E|----------------------------------------------------------------------

E|----------------------9--9--9------------------------------9-9-----9-9-
B|------------12-12-12/10-10-10/12-12-12/10-10-10/8-8-8------------------
G|-9-9--------12-12-12----------12-12-12/11-11-11/9-9-9-11-11---11-11----
D|----11-12-12-----------------------------------------------------------
A|-----------------------------------------------------------------------
E|-----------------------------------------------------------------------

E|--------------------9--9--9/10-12~14^----|
B|-10-10-10/12-12-12/10-10-10/12-----------|
G|-11-11-11/12-12-12-----------------------|
D|-----------------------------------------|
A|-----------------------------------------|
E|-----------------------------------------|

F     C       G
  Y no se por que
F          C             G
  no me importa saber por que.
G
  No dejes que
                Am
  nos coma el diablo amor
                Bm
  que se trague tu calor
            C
  que eructe mi dolor.

          G
  No dejes que...
e|-----------0---0-------------0---0---------0--0------------0---0--|
B|---------0-----0-----------0-----0-------0----0----------0-----0--|
G|-------0-------0---------0-------0-----0------0--------0-------0--|
D|-----2---------2-------1---------1---0--------0----------------2--|
A|---2-----------2-----0-----------0------------0---0H4----------2--|
E|-0-------------0-----------------------------------------------0--|

RASGUEADO: Mim­*Mim­°Mim­+Mim   (CON MUCHA EMOCION)

          Mim        *Mim       °Mim         +Mim
Si mis plegarias no fueran a la virgen sino a ti
       MIm          *Mim            °MIm
Que pensarías, que dirías, si de la noche 
        +Mim     FA#
Soy un pedazo, del suelo que flota entre tus sueños.
 
FA                              MI
Como una perla, te saco de lo oscuro, 
     FA           MI
Te llamo por tu nombre
   FA
Y digo que, no puede ser.

LAm RE7  SOL   MIm
Quisiera ser alcohol 
LAm RE7   SOL            MIm
Para evaporarme en tu interior 
LAm RE7  SOL    MIm
Quisiera ser alcohol 
LAm  RE7  SOL         MIm
Para evaporarme de una vez
     SOL             MIm
Y sentir lo que es pasión
    FA                        LAm
Y sentir que soy querido, una vez.

         MIm      *Mim     °MIm
Si algún dia, me, miras, abrazado, de tu sombra
FA#                          FA     MI
No me separes, déjame solo, sin movimiento
FA        MI       FA          MI
Como una lágrima, que corre por tu cuerpo
   FA
Lamiéndote toda la piel.

LAm RE7  SOL   MIm
Quisiera ser alcohol 
LAm RE7   SOL            MIm
Para evaporarme en tu interior 
LAm RE7  SOL    MIm
Quisiera ser alcohol 
LAm  RE7  SOL         MIm
Para evaporarme de una vez
     SOL             MIm
Y sentir lo que es pasión
    FA                        LAm
Y sentir que soy querido, una vez.
                  
SOL  °MIm   *MIm  +Mim   MIm   RE7   LAm   FA    FA#   MI
e|3   e|0    e|0   e|0   e|0   e|2   e|0   e|1   e|2   e|0
B|3   B|0    B|0   B|0   B|0   B|1   B|1   B|1   B|2   B|0
G|0   G|0    G|0   G|0   G|0   G|2   G|2   G|2   G|3   G|1
D|0   D|0    D|1   D|X   D|2   D|0   D|2   D|3   D|4   D|2         
A|2   A|X    A|X   A|4   A|2   A|0   A|0   A|3   A|4   A|2
E|3   E|X    E|X   E|X   E|0   E|0   E|0   E|1   E|2   E|0
E B7
Desde aquel dia me trajeron para aca
C#m G#m
Sera porque no me dejaba rasurar?
E B7
Ya no me hablan ni si quiera las hormigas.
C#m G#m
Sera porque no saben que ando por aqui?

E B7
Desde aquel dia no me he dejado tocar
C#m G#m
Solo mis unas me pueden acariciar.
E B7
No me he dejado de pintar en las paredes
C#m G#m
Sera porque las sombras me hacen olvidar?
F#m G F#m G
Por eso me pongo un saco,
F#m C
Tomo la navaja y salgo a clavar.

G A
Sera por eso que no me dejan salir?
F Em F
Sera por eso que me dan electroshocks?
G A
Sera por eso que no me dejan salir?
F Em B7
Sera por eso que me dan electroshocks?

E B7
Ya no me duele ni si quiera la razon;
C#m G#m
Dicen que cuando duermo estoy mucho mejor.
E B7
Ya ni mis manos me creen lo que les platico,
C#m G#m
Y eso hace que yo me sienta muy mal;

F#m G F#m G
Por eso me pongo un saco,...
G A
Sera por eso que no me dejan salir...

E B7 C#m G#m F#m G C A F Em


|--0---2---4---4---2---3---0---0---1---0--|
|--0---0---5---4---2---0---1---2---1---0--|
|--1---2---6---4---2---0---0---2---2---0--|
|--2---1---6---6---4---0---2---2---3---2--|
|--2---2---4---6---4---2---3---0---3---2--|
|--0---0---4---4---2---3---0---0---1---0--|
INTRO
e-8------8-8-7----10-7---10-10-8-7-8---------------
B---10-10------10------8------------10-------------
G--------------------------------------------------
D--------------------------------------------------
A--------------------------------------------------
E--------------------------------------------------

e----8-8-7-----------------------------------------
B-10------10-8-8-8----10-10-10-8-7-----------------
G------------------9---------------9-9-7-7---------
D--------------------------------------------------
A--------------------------------------------------
E--------------------------------------------------

e-------12-15-15-15-15-14-12-----------------------
B----14-----------------------15-------------------
G-14-----------------------------------------------
D--------------------------------------------------
A--------------------------------------------------
E--------------------------------------------------

D            G D                G
 ANDO BUSCANDO  LAS FORMAS OCULTAS
D               G  D                  G
 DE UNA MANTARRAYA  CON NEUROSIS AUSENTE

e-10-10-8-8-7-7-8-7-----------------------------------------
B-------------------10-8-8-8-7------------------------------
G------------------------------9-9-7----------------7-7-9-7-
D------------------------------------10-9-9-7-----9--9------
A---------------------------------------------10------------
E-----------------------------------------------------------
D            G D                  G
 ANDO BUSCANDO  REPTILES CONSCIENTES
D              G    D               G
 DE ACTOS PENSANTES  Y NO CONVENIENTES

A            G                    D      G
 PARA QUE NO DIGAS QUE NO PIENSO EN TI AHAAA
A             G                 Bm   G
 PARA QUE NO DIGAS QUE NO PIENSO EN TI
A            G                    D        G
 PARA QUE NO DIGAS QUE NO PIENSO EN TI NO NO NO NO NO
A             G                 Bm   G
 PARA QUE NO DIGAS QUE NO PIENSO EN TI

e-8------8-8-7----10-10-10-10-8-7-7-------------------------
B---10-10------10-------------------10-10-10-8-7------------
G-------------------------------------------------9-7-7-----
D-----------------------------------------------------------
A-----------------------------------------------------------
E-----------------------------------------------------------

e--------------------------17-20-20-20-20-19-17-------------
B------------------------19---------------------20----------
G------7-9-7---7-7-7---19-----------------------------------
D-9-11-------11---------------------------------------------
A-----------------------------------------------------------
E-----------------------------------------------------------

D               G D                 G
 ANDO ENTRE SERES  OBLICUOS Y AUSENTES
D                G D                   G
 BUSCANDO LA FORMA  DE HACERLOS PRESENTES

e-19-20-20-20-20-19-22-----------19-20-19-22----------------
B----------------------22-20-20--------------22-20-20-------
G-----------------------------------------------------------
D-----------------------------------------------------------
A-----------------------------------------------------------
E-----------------------------------------------------------

D               G  D                      G
 TENGO EN MIS OJOS  A MI MUJER QUE ES ETEREA
D                         G  D                   G
 Y AUN PERDIDA ENTRE SOMBRAS  QUIERO QUE SEA ETERNA

A            G                    D        G
 PARA QUE NO DIGAS QUE NO PIENSO EN TI NO NO NO NO NO
A             G                 Bm   G
 PARA QUE NO DIGAS QUE NO PIENSO EN TI
A            G                    D        G
 PARA QUE NO DIGAS QUE NO PIENSO EN TI NO NO NO NO NO
A             G                Bm   Em
 PARA QUE NO DIGAS QUE NO PIENSO EN TI
  D  E  D
e--------------------------------------------
B----------------10-11-10-----------10-11-10-
G-7--9---------9------------------9----------
D-------7-8-10-------------7-8-10------------ (x3)
A--------------------------------------------
E--------------------------------------------

  D  E  D                   E
e-------------------------------------------
B----------------10-11-10-------------------
G-7--9---------9----------------------------
D-------7-8-10--------------2-2-2-2-2-2-2---
A---------------------------2-2-2-2-2-2-2---
E---------------------------0-0-0-0-0-0-0---

A            G                    D        G
 PARA QUE NO DIGAS QUE NO PIENSO EN TI NO NO NO NO NO
A            G                  Bm   G
 PARA QUE NO DIGAS QUE NO PIENSO EN TI AHAAA
A            G                   D        G
 PARA QUE NO DIGAS QUE NO PIENSO EN TI NO NO NO NO NO
A            G                  Bm  Em
 PARA QUE NO DIGAS QUE NO PIENSO EN TI
A            G                  Bm   (sin guitarra)
 PARA QUE NO DIGAS QUE NO PIENSO EN TI AHAAA

e----------------------
B------------10-11-10--
G----------9-----------
D---7-8-10------------- (x3)
A----------------------
E----------------------

e----------------------
B------------10-10-----
G----------9-------9---
D---7-8-10-----------7-
A----------------------
E----------------------
 INTRO [Am]

e:I­12­­­­­12­­­­­12­­­­­­­12­­I
B:I­13­­­­­13­­­­­13­­­­­­­13­­I
G:I­14­­­­­14­­­­­14­­­­­­­14­­I
D:I­14­­­­­14­­­­­14­­­­­­­14­­I
A:I­­­­­­­­­­­­­­­­­­­­­­­­­­­­I
E:I­­­­­­­­­­­­­­­­­­­­­­­­­­­­I

e:I­12­­­­15s17s15­12­­­­­­­­­­­­­­­­­­­­­­­­­­­­­­­­­­­­­­­­­­­­­­­­­­­­­­­­­­­­­I
B:I­13­­­­­­­­­­­­­­­­­15­13­­15p12­­­­­­­­­­­­­­­­­15~­­13­12~­­13­13­15s17­­­­­­I
G:I­14­­­­­­­­­­­­­­­­­­­­­­­­­­­­­­12­­­­12­­14s16­­­­­­­­­­­­­­­­­­­­­­­­­14s\­­I
D:I­14­­­­­­­­­­­­­­­­­­­­­­­­­­­­­­­­­14­­­­­­­­­­­­­­­­­­­­­­­­­­­­­­­­­­­­­­­­­I
A:I­­­­­­­­­­­­­­­­­­­­­­­­­­­­­­­­­­­­­­­­­­­­­­­­­­­­­­­­­­­­­­­­­­­­­­­­­­­­­­­I
E:I­­­­­­­­­­­­­­­­­­­­­­­­­­­­­­­­­­­­­­­­­­­­­­­­­­­­­­­­­­­­­­­­­­­­­­­­­­­­­­­I

   Am
 
e:I­12­­­­­12­­­­­12­­­­­­­12­­I
B:I­13­­­­­13­­­­­13­­­­­­­13­­I
G:I­14­­­­­14­­­­­14­­­­­­­14­­I
D:I­14­­­­­14­­­­­14­­­­­­­14­­I
A:I­­­­­­­­­­­­­­­­­­­­­­­­­­­­I
E:I­­­­­­­­­­­­­­­­­­­­­­­­­­­­I

    Am                   Em          Em7
   no_creas_que_por_estar_sentado_aqui, 

e:I­12­­­­­­­­­­­­­­­­­­­12­­­­­­­­­­12­­I
B:I­13­­­­­­­­­­­­­­­­­­­12­­­­­­­­­­15­­I
G:I­14­­­­­­­­­­­­­­­­­­­12­­­­­­­­­­12­­I
D:I­14­­­­­­­­­­­­­­­­­­­14­­­­­­­­­­14­­I
A:I­12­­­­­­­­­­­­­­­­­­­14­­­­­­­­­­14­­I
E:I­­­­­­­­­­­­­­­­­­­­­­­­­­­­­­­­­­­­­­I

    Am                Em       Em7
    no_voy_a_poder_correr_hacia_ti,  

e:I­12­­­­­­­­­­­­­­­­12­­­­­­­12­­I
B:I­13­­­­­­­­­­­­­­­­12­­­­­­­15­­I
G:I­14­­­­­­­­­­­­­­­­12­­­­­­­12­­I
D:I­14­­­­­­­­­­­­­­­­14­­­­­­­14­­I
A:I­12­­­­­­­­­­­­­­­­14­­­­­­­14­­I
E:I­­­­­­­­­­­­­­­­­­­­­­­­­­­­­­­­I
   no__no____________(TECLADOS)

e:I­­­12­­­­­­­­­12­­­­­­­­­­12­­I
B:I­­­13­­­­­­­­­12­­­­­­­­­­15­­I
G:I­­­14­­­­­­­­­12­­­­­­­­­­12­­I
D:I­­­14­­­­­­­­­14­­­­­­­­­­14­­I
A:I­­­12­­­­­­­­­14­­­­­­­­­­14­­I
E:I­­­­­­­­­­­­­­­­­­­­­­­­­­­­­­I

    Am                Em           Em7
   no_creas_que_por_estar_amarrado_asi,

e:I­12­­­­­­­­­­­­­­­­12­­­­­­­­­­­12­­I
B:I­13­­­­­­­­­­­­­­­­12­­­­­­­­­­­15­­I
G:I­14­­­­­­­­­­­­­­­­12­­­­­­­­­­­12­­I
D:I­14­­­­­­­­­­­­­­­­14­­­­­­­­­­­14­­I
A:I­12­­­­­­­­­­­­­­­­14­­­­­­­­­­­14­­I
E:I­­­­­­­­­­­­­­­­­­­­­­­­­­­­­­­­­­­­I

    Am                Em      Em7
   no_voy_a_poder_abrazarte_a_ti___

e:I­12­­­­­­­­­­­­­­­­12­­­­­­12­­I
B:I­13­­­­­­­­­­­­­­­­12­­­­­­15­­I
G:I­14­­­­­­­­­­­­­­­­12­­­­­­12­­I
D:I­14­­­­­­­­­­­­­­­­14­­­­­­14­­I
A:I­12­­­­­­­­­­­­­­­­14­­­­­­14­­I
E:I­­­­­­­­­­­­­­­­­­­­­­­­­­­­­­­I

             Am                          Em  
    hasta_mori_______r__________hasta_mo___rir______________hasta__

e:I­­­­­­­­­­­­­­­­­­­­­­­­­­­­­­­­­­­­­­­­­­­­­­­­­­­­­­­­­­­­­­­­I
B:I­­­­­­­­­­­­­­­­­­­­­­­­­­­­­­­­­­­­­­­­­­­­­­­­­­­­­­­­­­­­­­­­I
G:I­­­­­­­­­­­­9­7­9­9­­­9­­9­7­9­9­­­­­­­­­­9­7­9­9­­­9­­9­7­9­9­­I
D:I­­­­­­­­­­7­­­­­­­­­­7­­­­­­­­­­­­­­­­­­9­­­­­­­­­­9­­­­­­­­­­­­I
A:I­­­­­­­­­­­­­­­­­­­­­­­­­­­­­­­­­­­­­­­­­­­­­­­­­­­­­­­­­­­­­­­­I
E:I­­­­­­­­­­­­­­­­­­­­­­­­­­­­­­­­­­­­­­­­­­­­­­­­­­­­­­­­­­­­­­­­I

    Am                                Em
  __mori________r_____________hasta__mo_______rir_____

e:I­­­­­­­­­­­­­­­­­­­­­­­­­­­­­­­­­­­­­­­­­­­­­­­­­­­­­­­­­­­­I
B:I­­­­­­­­­­­­­­­­­­­­­­­­­­­­­­­­­­­­­­­­­­­­­­­­­­­­­­­­­­­­I
G:I­­­­­­­­9­7­9­9­­­9­­9­7­9­9­­­­­­­­­­9­7­9­9­­­9­­9­7­9­9­­I
D:I­­­­­­7­­­­­­­­­­7­­­­­­­­­­­­­­­­­­9­­­­­­­­­­9­­­­­­­­­­­­I
A:I­­­­­­­­­­­­­­­­­­­­­­­­­­­­­­­­­­­­­­­­­­­­­­­­­­­­­­­­­­­­I
E:I­­­­­­­­­­­­­­­­­­­­­­­­­­­­­­­­­­­­­­­­­­­­­­­­­­­­­­­­­­­­I

    Am                 Am  
                       no______
 
e:I­12­­12­­12­­­12­­­15s17~­­I
B:I­13­­13­­13­­­­­­­­­­­­­­­­I
G:I­14­­14­­14­­­­­­­­­­­­­­­­I
D:I­14­­14­­14­­­­­­­­­­­­­­­­I
A:I­12­­12­­12­­­­­­­­­­­­­­­­I
E:I­­­­­­­­­­­­­­­­­­­­­­­­­­­I

    Am             Em               Em7
   _creas_que_por_estar_encerrado_aqui__

e:I­12­­­­­­­­­­­­­12­­­­­­­­­­­­­­­12­­I
B:I­13­­­­­­­­­­­­­12­­­­­­­­­­­­­­­15­­I
G:I­14­­­­­­­­­­­­­12­­­­­­­­­­­­­­­12­­I
D:I­14­­­­­­­­­­­­­14­­­­­­­­­­­­­­­14­­I
A:I­12­­­­­­­­­­­­­14­­­­­­­­­­­­­­­14­­I
E:I­­­­­­­­­­­­­­­­­­­­­­­­­­­­­­­­­­­­­I

    Am                   Em     Em7
   _no_estoy_pensando_en_ir_por_ti__
   
e:I­12­­­­­­­­­­­­­­­­­­­12­­­­­12­­I
B:I­13­­­­­­­­­­­­­­­­­­­12­­­­­15­­I
G:I­14­­­­­­­­­­­­­­­­­­­12­­­­­12­­I
D:I­14­­­­­­­­­­­­­­­­­­­14­­­­­14­­I
A:I­12­­­­­­­­­­­­­­­­­­­14­­­­­14­­I
E:I­­­­­­­­­­­­­­­­­­­­­­­­­­­­­­­­­I

       E                 Am             E
  __llevarte_lejos,_muy_lejos,__hasta_que_nadie________________

e:I­­­­­­­­­­­12­­­­­­­­­­­­­­12­­­­­­­­­­­­­­­12­­­­­­­­­­­­­­­I
B:I­­­­­­­­12­­­­12­­­­­­­­13­­­­13­­­­­­­­­12­­­­­15s17­­15v~­­I
G:I­­­­­13­­­­­­­­­­13­­14­­­­­­­­­­14­­13~­­­­­­­­­­­­­­­­­­­­­I
D:I­­­­­­­­­­­­­­­­­­­­­­­­­­­­­­­­­­­­­­­­­­­­­­­­­­­­­­­­­­­­­I
A:I­­­­­­­­­­­­­­­­­­­­­­­­­­­­­­­­­­­­­­­­­­­­­­­­­­­­­­­­­­­­­I
E:I­­­­­­­­­­­­­­­­­­­­­­­­­­­­­­­­­­­­­­­­­­­­­­­­­­­­­­­­­­­­­I

   ___________se_acuerde_de_ti__

    Am                 Em      
   ___________________A____h
e:I­­­­­­­­­­­­­­­­­­­­­­­­­­­­­­­­­­­­­­­­I
B:I­­­­­­­­­­­­­­­­­­­­­­­­­­­­­­­­­­­­­­­­I
G:I­­­9­7­9~­­­­9­7­9­­­­­9­7­9~­­­­9­7­9­­I
D:I­7­­­­­­­­­7­­­­­­­­­9­­­­­­­­­9­­­­­­­­I
A:I­­­­­­­­­­­­­­­­­­­­­­­­­­­­­­­­­­­­­­­­I
E:I­­­­­­­­­­­­­­­­­­­­­­­­­­­­­­­­­­­­­­­­I

   Am                   Em
   ah___________________oh________________

e:I­­­­­­­­­­­­­­­­­­­­­­­­­­­­­­­­­­­­­­­­I
B:I­­­­­­­­­­­­­­­­­­­­­­­­­­­­­­­­­­­­­­­­I
G:I­­­9­7­9~­­­­9­7­9­­­­­9­7­9~­­­­9­7­9­­I
D:I­7­­­­­­­­­7­­­­­­­­­9­­­­­­­­­9­­­­­­­­I
A:I­­­­­­­­­­­­­­­­­­­­­­­­­­­­­­­­­­­­­­­­I
E:I­­­­­­­­­­­­­­­­­­­­­­­­­­­­­­­­­­­­­­­­I

e:I­­­­­­­­­­­­­­­­­­­­­­­­­­­­­­­­­­­­­­­­­­­­­­­­­­­­­­­­­­­­I
B:I­­­­­­­­­­­­­­­­­­­­­­­­­­­­­­­­­­­­­­­­­­­­­­­­­­­­­­­­­­­­I
G:I­­­­­­­­­­­­­­­­­­­­­­­­­­­­­­­­­­­­­­­­­­­­­­­­­­­­­­­­­­­­I
D:I­17­17­17­­17­17­17­­16­16­16­­16­16­­15­­15­15­15­15­­14~­­I
A:I­­­­­­­­­­­­­­­­­­­­­­­­­­­­­­­­­­­­­­­­­­­­­­­­­­­­­­­­­­­­I
E:I­­­­­­­­­­­­­­­­­­­­­­­­­­­­­­­­­­­­­­­­­­­­­­­­­­­­­­­­­­­­I

e:I­­­­­­­­­­­­­­­­­­­­­­­­­­­­­­­­­­­12­­­­­­­­­­­­­­­­­­­­­­­­­­­­­­­­­­­­I
B:I­­­­­­­­­­­­­­­­­­­­­­­­­­­­­­­­13­­­­­13­­­­­13­12­13­12­13­(12­13­)­­­­I
G:I­­­­­­­12­­­­­12­­­­­12s14­­­14­­­­­­­­­­­14­­­­­­­­­­­­­­­­­­­­­­­­­­14­I
D:I­14­14­­­­14­­­­­14­­­­­­­­­­­­­­­­­­­­­­­­­­­­­­­­­­­­­­­­­­­­­­­­­­­­­­I
A:I­­­­­­­­­­­­­­­­­­­­­­­­­­­­­­­­­­­­­­­­­­­­­­­­­­­­­­­­­­­­­­­­­­­­­­­­­I
E:I­­­­­­­­­­­­­­­­­­­­­­­­­­­­­­­­­­­­­­­­­­­­­­­­­­­­­­­­­­­­­­­­­­­­­­­­­I

                                  Am
                                  no__  

e:I­­­­­­­­­­­­­­­12­­15­17­15­12­­­­­­I
B:I­­­­13­13­­­­­­13­­­­­­­­­­­­­­13~­­I
G:I­14­14­14­14­­­14­­­­­­­­­­­­­­­­­­­I
D:I­­­­­­­­­­­­­­­­­­­­­­­­­­­­­­­­­­­­I
A:I­­­­­­­­­­­­­­­­­­­­­­­­­­­­­­­­­­­­I
E:I­­­­­­­­­­­­­­­­­­­­­­­­­­­­­­­­­­­­I
 
    Am              Em           Em7   
   _creas_que_por_estar_desnudo_asi__

e:I­12­­­­­­­­­­­­­­12­­­­­­­­­­­12­­I
B:I­13­­­­­­­­­­­­­­12­­­­­­­­­­­15­­I
G:I­14­­­­­­­­­­­­­­12­­­­­­­­­­­12­­I
D:I­14­­­­­­­­­­­­­­14­­­­­­­­­­­14­­I
A:I­12­­­­­­­­­­­­­­14­­­­­­­­­­­14­­I
E:I­­­­­­­­­­­­­­­­­­­­­­­­­­­­­­­­­­I

    Am                     Em             Em7
   no_voy_a_pasearme_de_puntitas_en_tu_jardin___

e:I­12­­­­­­­­­­­­­­­­­­­­­12­­­­­­­­­­­­­12­­I
B:I­13­­­­­­­­­­­­­­­­­­­­­12­­­­­­­­­­­­­15­­I
G:I­14­­­­­­­­­­­­­­­­­­­­­12­­­­­­­­­­­­­12­­I
D:I­14­­­­­­­­­­­­­­­­­­­­­14­­­­­­­­­­­­­14­­I
A:I­12­­­­­­­­­­­­­­­­­­­­­14­­­­­­­­­­­­­14­­I
E:I­­­­­­­­­­­­­­­­­­­­­­­­­­­­­­­­­­­­­­­­­­­I

   Am                         Em 
   no_creas____que_esta_na______vaja_es_para_mi_____

e:I­­­­­­­­­­­­­­­­­­­­­­­­­­­­­­­­­­­­­­­­­­­­­­­­­­­­I
B:I­­­­­­­­­­­­­­­­­­­­­­­­­­­­­­­­­­­­­­­­­­­­­­­­­­­­I
G:I­­­9­7­9­9­­­9­­9­7­9­9­­­­­­­9­7­9­9­­­9­­9­7­9­9­­I
D:I­7­­­­­­­­­­7­­­­­­­­­­­­­­­9­­­­­­­­­­9­­­­­­­­­­­­I
A:I­­­­­­­­­­­­­­­­­­­­­­­­­­­­­­­­­­­­­­­­­­­­­­­­­­­­I
E:I­­­­­­­­­­­­­­­­­­­­­­­­­­­­­­­­­­­­­­­­­­­­­­­­­­­­I

   Am                          Em 
   la_traje____para__________rascarte_a_ti________ah,__
e:I­­­­­­­­­­­­­­­­­­­­­­­­­­­­­­­­­­­­­­­­­­­­­­­I
B:I­­­­­­­­­­­­­­­­­­­­­­­­­­­­­­­­­­­­­­­­­­­­­­­I
G:I­­­9­7­9­9­­­9­­9­7­9­9­­­­­­­­­9­7­9­9­­­­9~­­I
D:I­7­­­­­­­­­­7­­­­­­­­­­­­­­­­­9­­­­­­­­­­9­­­­­I
A:I­­­­­­­­­­­­­­­­­­­­­­­­­­­­­­­­­­­­­­­­­­­­­­­I
E:I­­­­­­­­­­­­­­­­­­­­­­­­­­­­­­­­­­­­­­­­­­­­­­­I

    Am                            Em      
   hasta_mo___rir_________hasta__mo__rir_________hasta_
e:I­­­­­­­­­­­­­­­­­­­­­­­­­­­­­­­­­­­­­­­­­­­­­­­­­­I
B:I­­­­­­­­­­­­­­­­­­­­­­­­­­­­­­­­­­­­­­­­­­­­­­­­­­I
G:I­­­­­­­­­­­­­9­7­9~­­­­9­7­9­­­­­9­7­9~­­­­9­7­9­­I
D:I­­­­­­­­­­­7­­­­­­­­­7­­­­­­­­­9­­­­­­­­­9­­­­­­­­I
A:I­­­­­­­­­­­­­­­­­­­­­­­­­­­­­­­­­­­­­­­­­­­­­­­­­­I
E:I­­­­­­­­­­­­­­­­­­­­­­­­­­­­­­­­­­­­­­­­­­­­­­­­­­I

   Am                   Em
   mo__rir________hasta__mo___rir______________(Zobate)

e:I­­­­­­­­­­­­­­­­­­­­­­­­­­­­­­­­­­­­­­­­­­I
B:I­­­­­­­­­­­­­­­­­­­­­­­­­­­­­­­­­­­­­­­­­­I
G:I­­­9­7­9~­­­­9­7­9­­­­­­­9­7­9~­­­­9­7­9­­I
D:I­7­­­­­­­­­7­­­­­­­­­­­9­­­­­­­­­9­­­­­­­­I
A:I­­­­­­­­­­­­­­­­­­­­­­­­­­­­­­­­­­­­­­­­­­I
E:I­­­­­­­­­­­­­­­­­­­­­­­­­­­­­­­­­­­­­­­­­­I

   SOLO
   
   Am                         E                      Am               

e:I­5~­­­­5­­8­7­5­I­­­­­­­­­­­­­­4­­­­­­­­4­­­­­­­­­­­­­­I
B:I­­­­­5­­­­­­­­­­I­5­5­­5­5­4­5­­­­5p4h5­­­­5s3­5­3­­­­­I
G:I­­­­­­­­­­­­­­­­I­­­­­­­­­­­­­­­­­­­­­­­­­­­­­­­­­­5~­­I
D:I­­­­­­­­­­­­­­­­I­­­­­­­­­­­­­­­­­­­­­­­­­­­­­­­­­­­­­­I
A:I­­­­­­­­­­­­­­­­I­­­­­­­­­­­­­­­­­­­­­­­­­­­­­­­­­­­­­­I
E:I­­­­­­­­­­­­­­­­I­­­­­­­­­­­­­­­­­­­­­­­­­­­­­­­­­­­­­­I

                            E
                            
e:I­­­­­­­­­­­­­I­­­­­­­­­­­­­­I­­­­0­­­­­­­­­­­­­­5­5­­I
B:I­­­­­8­­6­5~­I­­­­­­­­­­­­­­I­­­0­­­­­­­­5~­­­5­­­5­­I
G:I­­­5­­­­­­­­­I­­­5­4­­2­­1~­I­­1­­­­5s7­­­­­­­­­­­­­­I
D:I­7­­­­­­­­­­­I­5­­­­­­­­­­­­I­2­­­­­­­­­­­­­­­­­­­­­­I
A:I­­­­­­­­­­­­­I­­­­­­­­­­­­­­I­­­­­­­­­­­­­­­­­­­­­­­­I
E:I­­­­­­­­­­­­­I­­­­­­­­­­­­­­I­­­­­­­­­­­­­­­­­­­­­­­­I

    Am                      E

e:I­5­5­­­5­­­­5­5­­7­8~­­­­­­7­7­­­10­10­9­­7­­­­7~­­I
B:I­5­5­­­5­­­­5­5­­5­5~­­­­­­7­7­­­7­­7­­7­­7­­­­7~­­I
G:I­­­­­5­­­5­­­­­­­­­­­­­5s7­­­­­7­­­­­­­­­­­­­7­­­­­I
D:I­­­­­­­­­­­­­­­­­­­­­­­­­­­­­­­­­­­­­­­­­­­­­­­­­­­I
A:I­­­­­­­­­­­­­­­­­­­­­­­­­­­­­­­­­­­­­­­­­­­­­­­­­­­I
E:I­­­­­­­­­­­­­­­­­­­­­­­­­­­­­­­­­­­­­­­­­­­­­­­­­­­I
   Am                                  E                            Am

e:I­­­­­­8­­10s12­­12­12­­12­12­12­­12­12­I­­­­­­­12­14­12­14­­16~­­­­­­I
B:I­8s10­­­­­­­­­­­­­­­­­­­­­­­­­­­­­­­­­­I­­­­12­­­­­­­­­­­­­­­­­­­­5­­I
G:I­­­­­­­­­­­­­­­­­­­­­­­­­­­­­­­­­­­­­­­I­13­­­­­­­­­­­­­­­­­­­­­­­5­­I
D:I­­­­­­­­­­­­­­­­­­­­­­­­­­­­­­­­­­­­­­­I­­­­­­­­­­­­­­­­­­­­­­­­­­7­­I
A:I­­­­­­­­­­­­­­­­­­­­­­­­­­­­­­­­­­­­­­­I­­­­­­­­­­­­­­­­­­­­­­­­­­7­­I
E:I­­­­­­­­­­­­­­­­­­­­­­­­­­­­­­­­­­­­­­­I­­­­­­­­­­­­­­­­­­­­­­­­­­­­­I

    Am                            Em      
   hasta_mo___rir_________hasta__mo__rir_________hasta_
e:I­­­­­­­­­­­­­­­­­­­­­­­­­­­­­­­­­­­­­­­­­­­­­­­­­­I
B:I­­­­­­­­­­­­­­­­­­­­­­­­­­­­­­­­­­­­­­­­­­­­­­­­­­I
G:I­­­­­­­­­­­­­9­7­9~­­­­9­7­9­­­­­9­7­9~­­­­9­7­9­­I
D:I­­­­­­­­­­­7­­­­­­­­­7­­­­­­­­­9­­­­­­­­­9­­­­­­­­I
A:I­­­­­­­­­­­­­­­­­­­­­­­­­­­­­­­­­­­­­­­­­­­­­­­­­­I
E:I­­­­­­­­­­­­­­­­­­­­­­­­­­­­­­­­­­­­­­­­­­­­­­­­­­I

   Am                   Em
   mo__rir________hasta__mo___rir________hasta_

e:I­­­­­­­­­­­­­­­­­­­­­­­­­­­­­­­­­­­­­­­­­­I
B:I­­­­­­­­­­­­­­­­­­­­­­­­­­­­­­­­­­­­­­­­­­I
G:I­­­9­7­9~­­­­9­7­9­­­­­­­9­7­9~­­­­9­7­9­­I
D:I­7­­­­­­­­­7­­­­­­­­­­­9­­­­­­­­­9­­­­­­­­I
A:I­­­­­­­­­­­­­­­­­­­­­­­­­­­­­­­­­­­­­­­­­­I
E:I­­­­­­­­­­­­­­­­­­­­­­­­­­­­­­­­­­­­­­­­­­I

   Am                   Em
   mo__rir________hasta__mo___rir________hasta_

e:I­­­­­­­­­­­­­­­­­­­­­­­­­­­­­­­­­­­­­­­­­­I
B:I­­­­­­­­­­­­­­­­­­­­­­­­­­­­­­­­­­­­­­­­­­I
G:I­­­9­7­9~­­­­9­7­9­­­­­­­9­7­9~­­­­9­7­9­­I
D:I­7­­­­­­­­­7­­­­­­­­­­­9­­­­­­­­­9­­­­­­­­I
A:I­­­­­­­­­­­­­­­­­­­­­­­­­­­­­­­­­­­­­­­­­­I
E:I­­­­­­­­­­­­­­­­­­­­­­­­­­­­­­­­­­­­­­­­­­I

   Am
  _morir______

e:I­­12­­­­­­12­­­­­12­­­­12­­­­12­­I
B:I­­13­­­­­­13­­­­­13­­­­13­­­­13­­I
G:I­­14­­­­­­14­­­­­14­­­­14­­­­14­­I
D:I­­14­­­­­­14­­­­­14­­­­14­­­­14­­I
A:I­­12­­­­­­12­­­­­12­­­­12­­­­12­­I
E:I­­­­­­­­­­­­­­­­­­­­­­­­­­­­­­­­­I

e:I­­­­­­­­­­­­­­­­­­­­­­­­­I
B:I­5­5­­7­­8­­­8­­7­­­5­5­­I
G:I­5­5­­5­­5­­­5­­5­­­5­5­­I
D:I­­­­­­­­­­­­­­­­­­­­­­­­­I
A:I­­­­­­­­­­­­­­­­­­­­­­­­­I
E:I­­­­­­­­­­­­­­­­­­­­­­­­­I
F#m
E|---5-4-3-2-3-|---5-4-3-2-7-|---5-4-3-2-3-|--3-2-0-------------------|
B|-------------|-------------|-------------|--------3-2-0-------------|
G|-------------|-------------|-------------|--------------4-3-0-------|
D|-------------|-------------|-------------|--------------------4-3-0-|x2
A|-------------|-------------|-------------|--------------------------|
E|-------------|-------------|-------------|--------------------------|
F#m
  Dicen que no conocio el amor
                                  A
  dicen que tiene maldito el corazón

  que no tiene salvación
  F#m
  dicen que es una mujer fatal
                                     A
  un paso en falso y te vuelves de cristal

  F#m
  como la fuerza de un huracán
                                         A
  y el apetito que tiene cualquier predador animal, uuuuh...
  F#m
  con la ponzoña de un alacran
                                         A
  con la inocencia de un niño y bajo la mano un puñal

                                         F#m
  Mira en sus ojos y juega su juego y veras...

 F#m/A
  Uh, Uh, Uh
 Bm       D
  Eres veneno vil. (x2)

F#m

E|---5-4-3-2-3-|---5-4-3-2-7-|---5-4-3-2-3-|--3-2-0-------------------|
B|-------------|-------------|-------------|--------3-2-0-------------|
G|-------------|-------------|-------------|--------------4-3-0-------|
D|-------------|-------------|-------------|--------------------4-3-0-|
A|-------------|-------------|-------------|--------------------------|
E|-------------|-------------|-------------|--------------------------|
  F#m
  dicen que es como una maquina
                                    A
  nada se salva de una hembra tan voraz
  F#m
  dicen que es como una vibora
                               A
  beso tras beso propaga su maldad
                                         F#m
  mira sus ojos y juega en su juego y veras...

F#m/A
  Uh, Uh, Uh
 Bm       D
  Eres veneno vil. (x2)

SOLO
----F#5---------------G#5/A5- F#5----------------C#5/D5
E||-------------------|--------------------2----||
B||-------------------|--------------------2----||
G||-------------------|--------------------4----||
D||--4----------------|--4-----------------4----||
A||----4--2--0--2--4--|----4--2--0--2--4---2----||
E||-------------------|-------------------------||

----F#5-----------G#5/A5C#5/D5---------B5----
E||-------------------|-------------------------||
B||-------------------|-------------------------||
G||-------------------|---------------------4---||
D||--4----------------|--4--0----0------0-4-----||
A||----4--2--0--2--4--|--------4---4--2---------||
E||-------------------|-------------------------||

------F#5---------G#5/A5- C#5/D5------------B5--
E||-------------------|-------------------------||
B||-------------------|-------------------------||
G||-------------------|-------------------------||
D||--4----------------|--4--0-------------------||
A||----4--2--0--2--4--|--------4-2-0-2--2-0-2---||
E||-------------------|-----------------------2-||

F#m

E|----5-4-3-2-3-|---5-4-3-2-7-|----5-4-3-2-3-|--3-2-0-------------------|
B|--------------|-------------|--------------|--------3-2-0-------------|
G|--------------|-------------|--------------|--------------4-3-0-------|
D|--------------|-------------|--------------|--------------------4-3-0-|
A|--------------|-------------|--------------|--------------------------|
E|--------------|-------------|--------------|--------------------------|

  Dicen que no conocio el amor
                                  A
  dicen que tiene maldito el corazon

  que no tiene salvacion
  F#m
  dicen que es una mujer fatal
                                     A
  un paso en falso y te vuelves de cristal  ooooh...

  F#m
  como la fuerza de un huracan
                                         A
  y el apetito que tiene cualquier predador animal  ooooh...
  F#m
  una catastrofe natural
                                 A
  tiene los ojos de fuego y corazon de metal

  Mira en sus ojos y juegas su juego y veras...

F#m/A
  Uh, Uh, Uh
 Bm       D
  Eres veneno vil. (x2)

(después se vuelve a repetir el solo
nada mas que ahora se va a escuchar
con este pedazo de letra sobre el mismo)

  Eres veneno vil y tu mordida es mortal
  tras de ese vientre animal
  eres veneno vil de mordedura fatal
  tras de ese vientre animal
  eres veneno vil

(disfruten la rola y practíquenla)
INTRO
Cm Am x2
e|---------------------------------|
B|---------------------------------|
G|---------------------------------|
D|---2---2---3---2---5---2-----2---| x2
A|-3---3---3---3---3---0---0-0---0-|
E|---------------------------------|

En total (Cm Am) se hace 4 veces en el intro

C               Am
Nos ahogaremos juntos
C               Am
en aguas que todos quieren probar
C               Am
sin importarnos como es el final
C                 Am
no hay otras vidas, tierra nada más..

Intro (C Am) x2

C             Am
Caminaremos juntos
C             Am
escaparemos de la realidad
C              Am
si tropezamos no nos dolerá
C                   Am            F
no existen cuerpos, mentes nada mas

      G             Em
eres sangre tibia y yo
           F
me siento vivo
G
uoo o o o o..

Intro (C Am) x2

C             Am
Transformaremos mundos
C             Am
inventaremos mares que cruzar
C              Am
si nos perdemos nada pasará
C                   Am         F
ahora lo entiendo, amar es liberar

      G             Em
eres sangre tibia y yo
           F
me siento vivo
G
uoo o o o o..
C(Intro)           Am
me siento vivo uoo o o o o
C Intro)     Am    Em
me siento vivo   uoo o o o o
          F
me siento vivo
G         C
uoo o o o o

SOLO:
G Dm F C,  G  ­ F
            G                 Dm           F                C
e|------------------|-----------------------|-----------------|
B|------------------|-----------------------|------5-8-5------|
G|-7^--5-7--7^--5-7-|-7^--5-2--0-2-5--0-2-5-|--7-5-------7-5~-|
D|------------------|-----------------------|-----------------|
A|------------------|-----------------------|-----------------|
E|------------------|-----------------------|-----------------|

                              G           (G)
e|-------------------------------------------------------
B|----------------------------------------8/10(pausa)/6--
G|------------------------5-2-5^-2--5~-------------------
D|-7-5----------------2-5--------------------------------
A|-----7-5-3-5-3--3-5------------------------------------
E|-------------------------------------------------------

F     G             Em
eres sangre tibia y yo
           F
me siento vivo
G           C
uoo o o o o..
            Am
me siento vivo
           C
uoo o o o o
            Am ­ A
me siento vivo

aquí cambia el tono

D               Bm
Transformaremos mundos
D               Bm
inventaremos mares que cruzar
D               Bm
si nos perdemos nada pasará
D                   Bm            G
ahora lo entiendo, amar es liberar

      A             F#m
eres sangre tibia y yo
           G
me siento vivo
A(final)       D
uoo o o o o..
          Bm
me siento vivo  uoo o o o o
D(final)        Bm          F#m
me siento vivo  uoo o o o o
           G
me siento vivo
A         Bm
uoo o o o o
           G
me siento vivo
A         Bm
oh o o o
           G
me siento vivo
A         D
uuuuuuu  uuuuuuooo..

final

D Bm
e|---------------------------------|
B|---------------------------------|
G|---------------------------------|
D|---4---4---5---4---7---4-----4---| x4
A|-5---5---5---5---5---2---2-2---2-|
E|---------------------------------|
Artista: FOBIA
Canción: Hipnotízame
Álbum: Amor Chiquito
Año: 1995

INTRODUCCION

e----------------------------------
B---------------------0-----0------
G---0-------0-------7-----7---7----
D-----7---7---7---5-----4-------4--
A-5-----4-------0------------------
E----------------------------------

e---------------
B---------------
G-------0------- x 2
D---4-----4---4-
A-2---2-----2---
E---------------

VERSOS

Pude cerrar los ojos mas no pude dejar de verte,
e----------------------------------------------------------------
B---------------------0-----0------------------------------------
G---0-------0-------7-----7---7------------0-------------0-------
D-----7---7---7---5-----4-------4------4-----4---4---4-----4---4-
A-5-----4-------0--------------------2---2-----2---2---2-----2---
E----------------------------------------------------------------

y dejar de dormir mas no dejar de soñar.
e-------------------------------------------------------------------
B---------------------0-----0---------------------------------------
G---0-------0-------7-----7---7-------------------------------------
D-----7---7---7---5-----4-------4----------4-------------5----------
A-5-----4-------0----------------------4-----4---4---5-----5---0----
E------------------------------------2---2-----2---3---3-----3------

Puedo callar las voces mas no puedo dejar de oírte,
e----------------------------------------------------------------
B---------------------0-----0------------------------------------
G---0-------0-------7-----7---7------------0-------------0-------
D-----7---7---7---5-----4-------4------4-----4---4---4-----4---4-
A-5-----4-------0--------------------2---2-----2---2---2-----2---
E----------------------------------------------------------------

puedo dejar de ser pero no puedo dejar de estar.
e-------------------------------------------------------------------
B---------------------0-----0---------------------------------------
G---0-------0-------7-----7---7-------------------------------------
D-----7---7---7---5-----4-------4----------4-------------5----------
A-5-----4-------0----------------------4-----4---4---5-----5---0----
E------------------------------------2---2-----2---3---3-----3------

CORO (En el coro utiliza un arpegio sencillo para acompañar)

C    D       Am   F
Besame, hipnotízame,

C                             G
ya no me importa mas róbame el alma, hechizame

Puedo calmar mi mente mas no puedo calmar mi sangre,
e----------------------------------------------------------------
B---------------------0-----0------------------------------------
G---0-------0-------7-----7---7------------0-------------0-------
D-----7---7---7---5-----4-------4------4-----4---4---4-----4---4-
A-5-----4-------0--------------------2---2-----2---2---2-----2---
E----------------------------------------------------------------

y puedo ser sincero sin dejar de mentir.
e-------------------------------------------------------------------
B---------------------0-----0---------------------------------------
G---0-------0-------7-----7---7-------------------------------------
D-----7---7---7---5-----4-------4----------4-------------5----------
A-5-----4-------0----------------------4-----4---4---5-----5---0----
E------------------------------------2---2-----2---3---3-----3------

Puedo quedarme cerca, mas no puedo dejar de huirte
e----------------------------------------------------------------
B---------------------0-----0------------------------------------
G---0-------0-------7-----7---7------------0-------------0-------
D-----7---7---7---5-----4-------4------4-----4---4---4-----4---4-
A-5-----4-------0--------------------2---2-----2---2---2-----2---
E----------------------------------------------------------------

puedo cambiar mi vida, mas no puedo cambiarme a mi
e-------------------------------------------------------------------
B---------------------0-----0---------------------------------------
G---0-------0-------7-----7---7-------------------------------------
D-----7---7---7---5-----4-------4----------4-------------5----------
A-5-----4-------0----------------------4-----4---4---5-----5---0----
E------------------------------------2---2-----2---3---3-----3------

CORO

C    D       Am   F
Besame, hipnotízame,

C                             G
ya no me importa mas róbame el alma hechizame

C    D       Am   F
Besame, intoxícame,

           C                    G
ya no me importa ser, un ser sin alma atrápame.

INTERLUDE

e|---------------------------------------------
B|---------------------------------------------
G|-----------10-10-10-10-10--------------------
D|-7-7-7-7---10-10-10-10-10---10-10-10-10--10--
A|-7-7-7-7---8--8--8--8--8----10-10-10-10--10--
E|-5-5-5-5--------------------8--8--8--8---8---

e|---------------------------------------------
B|---------------------------------------------
G|-----------10-10-10-10-10--------------------
D|-7-7-7-7---10-10-10-10-10----10-10-10-10-10--
A|-7-7-7-7---8--8--8--8--8-----10-10-10-10-10--
E|-5-5-5-5---------------------8--8--8--8--8---

e|----------------------------------
B|----------------------------------
G|----------------------------------
D|-9/10/9-10-2-2-2-2-2---3-3-3-3-3--
A|-9/10/9-10-2-2-2-2-2---3-3-3-3-3--
E|-7/8-/7/8--0-0-0-0-0---1-1-1-1-1--

SOLO DE VIOLIN

MIENTRAS TOCAS EL SOLO DE VIOLIN TOCAS LAS NOTAS DEL CORO
e-8-7-8-7-8-7-8-7-12----------------
B--------------------12-10----------
G-----------------------------------
D-----------------------------------
A-----------------------------------

e-12-15-10-15-12-15----12---10----10---
B-------------------13----12---10----8-
G--------------------------------------
D--------------------------------------
A--------------------------------------
E--------------------------------------

C    D       Am   F
Besame, hipnotízame,

C                             G
ya no me importa mas róbame el alma hechizame

C    D       Am   F
Besame, intoxícame,

           C                    G
ya no me importa ser, un ser sin alma atrápame.

ULTIMO SOLO DE VIOLIN ESTO SE TOCA EN EL ULTIMO CORO

e-8-7-8-7-8-7-8-7-12----------------
B--------------------12-10----------
G-----------------------------------
D-----------------------------------
A-----------------------------------

e-12-15-10-15-12-15----12---10----10---
B-------------------13----12---10----8-
G--------------------------------------
D--------------------------------------
A--------------------------------------
E--------------------------------------

e-8-7-8-7-8-7-8-7-8-7-8--12-----
B------------------------12-----
G------------------------12-----
D-------------------------------
A-------------------------------
E-------------------------------

Saludos a la maldita mortales y los hijos del 35vo. paso
INTRO
Em Em7/D# (3)

    G   Bm
Mujer, mujer...
 Em        G        Bm
el diablo te viene a ver,
Em          G        Bm
trae en el pecho un clavel,
Em          G         Bm  Em
trae en la mano un coctel
      D  G A     D G A  
para ti,   para ti

    G   Bm
Mujer, mujer...
Em           G            Bm
el diablo está aquí en la puerta
Em             G      Bm
porque no te haces la muerta
Em            G      Bm   Em
porque no bailas can­can,
      D  G A     D G A  
para ti,   para ti

CORO

F#m      D          A     
  Si preguntan por ti, 
    A/G#    A         
que voy a decir   
    A/G#       F#m                                                       
que voy a inventar
       D           A
Cuando no estés aquí,
    A/G#    A         
que voy a decir   
    A/G#       F#m                                                   
tendré que fingir.

F#m      D          A     
  Si preguntan por ti, 
    A/G#    A         
que voy a decir   
    A/G#       F#m                                                       
que voy a inventar
       D           A
Cuando no estés aquí,
    A/G#    A         
que voy a decir   
    A/G#       F#m                                                   
tendré que mentir.

    G   Bm
Mujer, mujer...
Em        G      Bm
no se porque decidiste,
Em        G              Bm
el diablo va a estar muy triste,
Em             G       Bm Em
va a estar cuidando de ti
D             G A    D       G A
para mi,Uh Uh...para mi,Uh Uh...
D     G A     D G A   
Uh Uh...para mi,

CORO

F#m      D          A     
  Si preguntan por ti, 
    A/G#    A         
que voy a decir   
    A/G#       F#m                                                       
que voy a inventar
       D           A
Cuando no estés aquí,
    A/G#    A         
que voy a decir   
    A/G#       F#m                                                   
tendré que fingir.

F#m      D          A     
  Si preguntan por ti, 
    A/G#    A         
que voy a decir   
    A/G#       F#m                                                       
que voy a inventar
       D           A
Cuando no estés aquí,
    A/G#    A         
que voy a decir   
    A/G#       Em Em7/D# Em Em7/D# Em Em7/D#       
tendré que mentir.

ACORDES

Cuerdas :654321
notas   :EADGBe

A/G#   ­ 402200
Em7/D# ­ 021000
riff principales:

riff 1

e|------------------|-----------------|-----------------|-----------------|
B|-------------2----|-----------------|-----------------|-----------------|
G|-----2---2-2------|-----7--7-6------|-----6---6---6---|-----6--6-5------|
D|-4-4---4-------4--|------------7----|-7-7---7---7---7-|------------6----|
A|------------------|-5-5----------5--|-----------------|-4-4----------4--|
E|------------------|-----------------|-----------------|-----------------|

riff2

e|-----------------|----------------|------------------|------------------|
B|-------------2---|----------------|------------------|------------------|
G|-----2---2-2-----|-----7--7-6-----|-----6---6---6----|------9--9-8------|
D|-4-4---4-------4-|------------7---|-7-7---7---7---7--|-------------9----|
A|-----------------|-5-5----------5-|------------------|--7-7----------7--|
E|-----------------|----------------|------------------|------------------|

riff3
(este es un pequeño riff ke casi no se escucha pero si le pones atencion
a la rolate daras cuenta de ke ahi esta;))
e|---------------------------|
B|---------------------------|
G|---------------------------|
D|--4--/s12--/s19--/s14-s7--|
A|---------------------------|
E|---------------------------|

riff4
e|--------------------------|
B|-----------5--------------|
G|--------------6-----------|
D|--4--6--7-----------------|
A|--------------------------|
E|--------------------------|

riff1 (x2)
F#m                   D
   Desde que tu llegaste
  A                      C#
   mi vida es un desmadre
F#m
   siempre que estoy contigo
            D                  A     C#
   se me olvida lo que quiero decir.

riff2 (x2) + riff 3 (x1) (aki se tocan los dos riff al mismo tiempo,
con dos liras claro!)
  F#m                  D
   Desde que me tocaste
        A
   no puedo concentrarme
             E                       F#m D A E
   todo el tiempo estoy pensando en ti.

riff1 (x2)
  F#m                   D
   Desde que tu llegaste
        A                C#
   me siento en otra parte
  F#m
   estoy insoportable
          D                     A  C#
   mis amigos se aburrieron de mi.

riff2 (x2) + riff 3 (x1)
  F#m               D
   Es muy complicado
         A
   no importa que me esconda
             E               F#m  D A E
   siempre algo me conecta a ti.

 Bm                     D         F#m
   Dos corazones laten dentro de mi  riff4(x1)
  Bm                     D         F#m
   Dos corazones laten dentro de mi
  Bm                     D         F#m
   Dos corazones laten dentro de mi  riff4(x1)
  Bm                     D         F#m
   Dos corazones laten dentro de mi

riff1 (x1)
  F#m                   D
   Desde que me llamaste
       A               C#
   mi vida es un misterio
riff2 (x1) F#m
   desde que me tocaste
          D               A   E
   tengo una razon para vivir. ohhooohh

riff2 (x2) + riff 3 (x1)
  F#m               D
   Es muy complicado
      A
   desde que tu llegaste
          E                F#m  D A E
   solo tengo tiempo para ti. uuuuuuuu ooohhhhh

  Bm                     D         F#m
   Dos corazones laten dentro de mi  riff4(x1)
  Bm                     D         F#m
   Dos corazones laten dentro de mi
  Bm                     D         F#m
   Dos corazones laten dentro de mi  riff4(x1)
  Bm                     D         F#m
   Dos corazones laten dentro de mi

 [  F#m  ](aki pueden hacer arpegios para acompañar al bajo)
  Bm                     D         F#m
   Dos corazones laten dentro de mi  riff4(x1)
  Bm                     D         F#m
   Dos corazones laten dentro de mi  riff4(x1)
  Bm                     D         F#m
   Dos corazones laten dentro de mi  riff4(x1) ooohhhhh
  Bm                     D         F#m
   Dos corazones laten dentro de mi  riff4(x1)
              Bm  D  F#m
   dentro de mi
|­­­­­­­­­­­­­­­­­­­­­­­­­­­­­­­­­­­­­­­­­­­­­­­­­­­­­­­­­­­­­­­­­­
|­­­­­­­­­­­­­­­­­­­­­­­­­­­­­­­­­­­­­­­­­­­­­­­­­­­­­­­­­­­­­­­­­­
|­­2­­2­­2­­­­­3­­3­­2­­­­­3­­3­­3­­­­3­­3­­2­­­­­­­­­­­­­­­­­­­­­­
|­0­­0­­0­­0^3­­3­­­3­­­­­­­­­­­­­­­­­­­­­­­­­3­­­­­­­­­­­­­­­­­­­­
|­­­­­­­­­­­­­­­­­­­­­­­­1­­1­­1­­­­­­­­­­­­­­­­­­­­­­­­­­­­­­­­­­­
|­­­­­­­­­­­­­­­­­­­­­­­­­­­­­­­­­­­3­­3­­­­­­­­­­­­­­­­­­­­­­­­­­­

Después se toca esto 2 veces

|­­­­­­­­­­­­­­­­­­­­­­­­­­­­­­­­­­­­­­­­­­­­­­­­­­­­­­­8­­­­­­­­­­­­
|­­­­­­­­­­­­­­­­­­­­­­­­­­­­­­­­­­­­­­­­­­­­­­­­­­5­7­­­­­­­­­­­­­­­
|­­3­­4­5­7­­5­4­­­­­­­­­­4­5­7­­­5­4­5­­­­­4­5­7­­­­­­­­­­­­­­­­­­­­
|­­­­­­­­­­­­­­­­5­5­5­5­­­­­­­­­­­­­­­­­5­­­­­­­­­­­­­­­­­­­­­­­­­­­
|­­­­­­­­­­­­­­­­­­­­­­­­­­­­­­­­­­­­­­­­­­­­­­­­­­­­­­­­­­­­­­­­­­­­
|­­­­­­­­­­­­­­­­­­­­­­­­­­­­­­­­­­­­­­­­­­­­­­­­­­­­­­­­­­­­­­­­­­­­

riff 1  hasta

Y es que hemos muerto de amor...
( 4 veces)
|­­­­­­­­­­­­­­­­­­­­­­­­­­­­­­­­­­­­­­­­­­­­­­­­­­­­­­­­­­­­­­­­­­­­­
|­­­­­­­­­­­­­­­­­­­­­­­­­­­­­­­­­­­­­­­­­­­­­­­­­­­­­­­­­­­­­­­­­­­­­
|­­5­­­5­­­­­­­­3­­­3­­­­2^3­­2­­0^2^0­­­­­­­­­­­­­­­­­­­­­­­­­­­­­­­­
|­­­­3­­­­5­5­5­­­5­­­0­­­­­­­­­­­­­­­­­3­2­0­2­3­0­3­­­­­­­­­­­­­­­­­
|­­­­­­­­­­­­­­­­­­­­­­­­­­­­­­­­­­­­­­­­­­­­­­­­­­­­­­­­­­­­­­­­­­­­­
|­­­­­­­­­­­­­­­­­­­­­­­­­­­­­­­­­­­­­­­­­­­­­­­­­­­­­­­­­­­­­­­­­­­­­

 solo final
|­­­­­­­­­­­3­5­6­­8­­6­5­3­­­­­­­­­­­­­­­­­­­­­­­­­­­­­­­­­­­­­­­­­­­
|­­­­­6­­­6­­­­­­­­­­­­­­­­­6­­­5­­6^5­­­­­­­­­­­­­­­­­­­­­­­­­­­­­­­­
|­­­5­­­6­­­­­­­­­­­­­­­­­­­­­5­­­­­­­­5^3­­3^2­0­­2­2^3­5­5­3^5­5­­­­
|­­­­­­­­­­­­­­­­­­­­­­­­­­­­­­­­­­­­­­­­­­­­­­­­­­­­­­­­­­­­­­­­­­­­­
|­­­­­­­­­­­­­­­­­­­­­­­­­­­­­­­­­­­­­­­­­­­­­­­­­­­­­­­­­­­­­­­­­­­­­

|­­­­­­­­­­­­­­­­­­­­­­­­­­­­­­­­­­­­­­­­­­­­­­­­­­­­­­­­­­­­­­­­­­­­­
|­­5^6­5­­­­­­3­­­­­­­­­­­­­­­­­­­­­­­­­­­­­­­­­­­­­­­­­­­­­­­­­­­­­­­
|­­­­­­­­­5­2­­­­­­­2^3­­­­­­­­­­­­­­­­­­­­­­­­­­­­­­­­­­­­­­­­­­­­­­­
|­­­­­­­­­­­­­­­­­0­0­­­0­­­­­­­­­­­­­­­­­­­­­­­­­­­­­­­­­­­­­­­­­­­­­
|­­­­­­­­­­­­­­­­­­­­­­­­­­­­3­3­­­­­­­­­­­­­­­­­­­­­­­­­­­­­­­­­­­­­­

(4 veces)                          Despues esto hasta acabar la cancion
|­­13­13­13­15­15­15­15­­­­­­    |­­5­5­5­6­6­6­5­5­5­6­6­6­­­­­­­­­­
|­­­­­­­­­­­­­­­­­­­­­­­­­­­­    |­­6­6­6­6­6­6­6­6­6­6­6­6­­­­­­­­­­
|­­­­­­­­­­­­­­­­­­­­­­­­­­­­    |­­5­5­5­5­5­5­5­5­5­5­5­5­­­­­­­­­­
|­­­­­­­­­­­­­­­­­­­­­­­­­­­­    |­­­­­­­­­­­­­­­­­­­­­­­­­­­­­­­­­­­

Dm          A#
Yo soy solo una piedra
Gm          A#
clavada entre la tierra
Dm       A#  
soñando con que escarves
Gm         A#
y alguna vez me veas.

Dm           A#
No soy mas que la sombra
Gm         A#
del polvo sobre el suelo
Dm      A#
el ojo de la hormiga
Gm         A#
que se cerro de sueño

C            F
Una y otra vez sacame de entre la tierra
C                      Dm            A#      
llevame hasta donde estes, donde nadie nos detenga

Dm       A#
Yo soy esa palabra
Gm        A#
que tu jamas dijiste
Dm         A#
que se quedo guardada
Gm         A#
que se quedo tan triste

Dm          A#
Yo soy el crucifijo
Gm        A#
al fondo de tu iglesia
Dm          A#
al cual ya no visitas
Gm            A#
al cual ya no le rezas

F                     Dm
Y es que hemos muerto de amor
        C           F          Dm­C
pero el amor nunca muere
      F      Dm  C     Dm­C
amor nunca muere
Intro:

       Em                   G   Em   G  Em   G  Em   G
|----------------|
|----------------|
|----------------|
|----------------|
|----------------|
|---3-2-0--------|

Em                     G
  ya no puedo darte el corazón
Em                     G
  iré donde quieran mis botas
D                                      Em
  y si quieres que te diga qué hay que hacer,
     G                           B
  te diré que apuestes por mi derrota

Em                           G
  quítate la ropa, así está bien
Em                  G
  no dejes nada por hacer
          D                     Em
  si has venido a comprarme, lárgate
          G                   B
  si vas a venir conmigo, agárrate

Em                    G
  larguémonos, chica, hacia el mar
         Em             G
  no hay amanecer en esta ciudad
        D                Em
  y no sé si nací para correr
          G                      B
  pero quizás sí que nací para apostar

Em                    G
  sé que ya nada va ocurrir
Em                            G
  pero ahora estoy contra las cuerdas
        D                  Em
  y no veo ni una forma de salir
        G                             B
  pero voy a apostar fuerte mientras pueda

Solo:

Guitarra 1
|-------------------------------------------------------------------
|-------------------------------------------------------------------
|-------------------------------------------------------------7/9---
|--------7---7h9p7h9-b7p5---7p5-----5/7-7/9-9h12-9b-12p9-9h12-------
|---5/7----7--------------7-----7p5---------------------------------
|-------------------------------------------------------------------

|------------------------------10--------------------------------------
|-8-8-10b(11r10)p8-10p8---8/12----12-10--------------------------------
|----------------------9----------------12-14bp12-14p12--9-9h12-97-7--
|----------------------------------------------------------------------
|----------------------------------------------------------------------
|----------------------------------------------------------------------

|-----------------------------------12~~---12p10--10--12~~-----------
|-----8-10b(11r10)p8-10p8---8-1012------12-----12--12------------10--
|-7/9---------------------9----------------------------------9-12-----
|---------------------------------------------------------------------
|---------------------------------------------------------------------
|---------------------------------------------------------------------

|----------------------------------------10---------------------------
|---------10h12p10------13--12-13-10-12-------------------------------
|-12-9-12---------12-9------------------12-14-11-12-9-11-7-9-5-7-4-5--
|---------------------------------------------------------------------
|---------------------------------------------------------------------
|---------------------------------------------------------------------

 (Guitarra 1)
|--------------------------------------------------------
|--------------------------------------------------------
|--------------------------------------------------------
|------7-9-5-7-4-5---------------------------------------
|------------------7-------------------------------------
|--------------------------------------------------------
|
|Entra guitarra 2
|-------------------12/----------------------------------
|-------------------12/--12~--10brp-8--10b-8~~--12~~---
|-------------------9-----------------9------------------
|--------------------------------------------------------
|--------------------------------------------------------
|--------------------------------------------------------

 (guitarra 2)
|-------------------------------------------------------------------
|---------------------------------------8-10-8h10-----8-1012-12~~-
|------7---9-7~~----------7-7h9~~------7-------------7--------------
|--79---9-----------(5)9------------9------------~9---------------
|---------------7~-------------------------------------------------
|-------------------------------------------------------------------

|---------------------------------------------------------
|-15b(17)--(17)r15p12-------------------------------------
|---------------------14br-12-1416-16~~~-----------------
|----------------------------------------------17p14~~----
|---------------------------------------------------------
|---------------------------------------------------------

|---------------------------------15---
|------------------------15--1517-----
|---------12--12h14-1416--16----------
|-12-12h14--14-------------------------
|--------------------------------------
|--------------------------------------

Em                    G
  larguémonos, chica, hacia el mar
        Em           G
  no hay amanecer en esta ciudad
        D              Em
  y no sé si nací para correr
        G                      B
  pero quizás sí que nací para apostar

Em                          G                             Em
  ya no puedo darte el corazón  (perdí mi apuesta por el rock & roll)
                          G
  perdí mi apuesta por el rock & roll (perdí mi apuesta)
D                       Em
  es la deuda que tengo que pagar
          G                  Em
  y ya no tiene sentido abandonar
         G                 Em
  ya no tiene sentido abandonar
              Em      G      Em      G      Em      G      Em      G
  oh, oh, oh, no late el corazón.
intro

e­­­­0­­­­­­­­­­­­­­­­­­­­­­­­­­­­­­­­­­­­­­­­­­­­­­­­­
b­­­3­­­­­­­­­­­­­­­­­­­­­­­­­­­­­­­­­­­­­­­­­­­­­­­­­­
g­­2­­­2­3­5­7­5­7­5h7­7­7­5h7­7­9­9­9h10­9­7­5­5h7­2­­
D­0­­­­­­­­­­­­­­­­­­­­­­­­­­­­­­­­­­­­­­­­­­­­­­­­­­­­
A­­­­­­­­­­­­­­­­­­­­­­­­­­­­­­­­­­­­­­­­­­­­­­­­­­­­­­
E­­­­­­­­­­­­­­­­­­­­­­­­­­­­­­­­­­­­­­­­­­­­­­­­­­­­­­

e­­­­5­5­5­3­5­6­5­3­1­1h3­1­0­1­0­­­­­­­­­­­­­­­­­­­­­
b­­­3­­­­­­­­­­­­­­­­­­­­­­­­­­­­­­3­1­1h3­3­­­­­­­­­­­
g­­2­­­­­­­­­­­­­­­­­­­­­­­­­­­­­­­­­­­­­­­­­­­­­­­­­­­
D­0­­­­­­­­­­­­­­­­­­­­­­­­­­­­­­­­­­­­­­­­­­­­­­­­­­­­
A­­­­­­­­­­­­­­­­­­­­­­­­­­­­­­­­­­­­­­­­­­­­­­­­­­­­­­
E­­­­­­­­­­­­­­­­­­­­­­­­­­­­­­­­­­­­­­­­­­­­­­­­­­­­­­

riff1

e­­­­­­­­­­­­­­­­­­­­­­­­­­­­­­­­­­­­­­­­­­­­­­­­­­­­­­
b­­­­­­­­­­­6­­­5­­­­­­­5h6­5­­­­­­­­­­­­­­­1­­­­­­­­­­
g­­­­­­­­­7­­­7­­­5­­­5­­­­­­­5­­­­­­­3­­­3­­­­­­­5­­­­
D­­­­­­­­­­­­­­­­­­­­­­­­­­­­­­­­­­­3­­­3­­­­­­­5­­­­­­
A­3­3h5­5­­­­­­­­­­­0­­­­­­­­­­­0­1­­­­­­­­­­­3­­­­­­­­
E­­­­­­­­­­­­­­­­­­­­­­­­­­­­­­­­­­­­­­­­­­­­­­­­­­­­­­

e­­­­­­­­­­­­­­­­­­­­­­­5­­­­­­­­­­­­­­­­­­­1­1­­­­­­­­
b­­­­­­­­­­­6­­­5­­­­­­­­­5­­­­­­­­­­­­­­­1­1­1­­­­­­­­
g­­­­­­­­­7­­­7­­­5­­­5­­­­­5­­­­­­­3­­­3­­­2­2­­­­­­­­
D­­­­­­­­­­­­­­­­­­­­­­­­­­­­­­­­­3­­­3­­­­­3­3­­­­­­­­
A­3­3h5­5­­­­­­­­­­­0­­­­­­­­­0­1­­­­­­­­­­­3­3­­­­­­­­
E­­­­­­­­­­­­­­­­­­­­­­­­­­­­­­­­­­­­­­­­­­­1­1­­­­­­­­

e­­­­­­­­­­­­­­­­­­­­­­­­­­­­­­­­­­­­­­­­­­­­­­­­­­­­­­
b­­­­­­­­­­­6­­­5­­­­­­­5h6­5­­­­­­­­­­­­­­­1­­­­­­­­­­
g­­­­­­­­­7­­­7­­­5­­­5­­­­­­­5­­­­­­­3­­­3­­­­­­­5­­­­
D­­­­­­­­­­­­­­­­­­­­­­­­­­­­­­­­­­­3­­­3­­­­­­­5­­­­­­
A­3­3h5­5­­­­­­­­­­­0­­­­­­­­­­­0­1­­­­­­­­­­­3­­­­­­­­
E­­­­­­­­­­­­­­­­­­­­­­­­­­­­­­­­­­­­­­­­­­­­­­­­­­­­­­

e­­­­­­­­­­­­­­­­­­­­­­­5­­­­­­­­­­­­­­­­­­­1­1­­­­­­­­
b­­­­­­­­­­­6­­­5­­­­­­­­­5­­­­­­­­­­­­­­­1­1­1­6­5­3­­
g­­­­­­­­­7­­­7­­­5­­­5­­­­­5­­­­­­­3­­­3­­­2­2­­­­­­­­
D­­­­­­­­­­­­­­­­­­­­­­­­­­­­­­­­­3­­­3­­­­­3­3­­­­­­­­
A­3­3h5­5­­­­­­­­­­­0­­­­­­­­­0­1­­­­­­­­­­­3­3­­­­­­­­
E­­­­­­­­­­­­­­­­­­­­­­­­­­­­­­­­­­­­­­­­­­­1­1­­­­­­­­

e­­­­­­­­­/­­­­­­­­­­­­­­­­­­­­­­­­­­­­­­­­­­­­­­­­­­­­
b­1h3­3­­­/­­­­­­­­­­­­­­­­­­­­­­­­­­­­­­­­­­­­­­­­­­­­
g­­­­­­­­­/­­­­­­­­­­­­­­­­­­­­­­­­­­­­­­­­­­­­­­­­­­­­
D­­­­­­­­­/­­­­­­­­­­­­­­­­­­­­­­­­­­­­­­­­­­­­­­­­­­­­
A­­­­­­­­­/­­­­­­­­­­­­­­­­­­­­­­­­­­­­­­­­­­­­­­­­­­­­
E­­­­­­­­­/­­­­­­­­­­­­­­­­­­­­­­­­­­­­­­­­­­­­­­­­­­­­

riff2

e­­­­­­­­­­­­­­­­­­­­­­­­­­­­­­­­­­­­­­­­­­­­­­­­­­­­­­
b­3­2­3­7­7­5­7­10­10­8h6­7h5­5h3­3h2­3­2­3­7­7­5­7­10­
g­­­­­­­­­­­­­­­­­­­­­­­­­­­­­­­­­­­­­­­­­­­­­­­­­­­­­­
D­­­­­­­­­­­­­­­­­­­­­­­­­­­­­­­­­­­­­­­­­­­­­­­­­­­­­­
A­­­­­­­­­­­­­­­­­­­­­­­­­­­­­­­­­­­­­­­­­­­­­­­­­­­­­­
E­­­­­­­­­­­­­­­­­­­­­­­­­­­­­­­­­­­­­­­­­­­­­­­­­­­­­­

E­­­­­­­­­­­­­­­­­­­­­­­­­­­­­­­­­­­­­­­­­­­­­­­­­­­­­­
A­­­­­­­­­­­­­­­3­3h5­5...etc­­­­­­­­­­­­­­­­­­­­­­­­­­
D­­­­­­­­­­­­­­­­­­­­­­­­­­­­­­­­­­­­­­­­­­­­­­­­­­­­­­
g­­­­­­­­­­­­­­­­­­­­­­­­­­­­­­­­­­­­­­­­­­­­­­­­­­­­­­
b­10­8h6­7h5­5­­­­­­­­­­­­­­­­­­­­­­­­­­­­­­­­­­­­­­­­­
e­­­­­­­­­­­­­­­­­­­­­­­­­­­­­­­­­­­­­­­­­­­­­­­­­­­­­­

Estribillo

e|­­2­2­2­2­2­­2­2­2­2­2­­3­3­3­3­3­­2­2­2­­0­0­0­0­­­­­­­­|
B|­­3­3­3­3­3­­2­2­2­2­2­­3­3­3­3­3­­3­3­3­­2­2­2­2­­­­­­­­|
G|­­2­2­2­2­2­­2­2­2­2­2­­4­4­4­4­4­­2­2­2­­2­2­2­2­­­­­­­­|
D|­­0­0­0­0­0­­4­4­4­4­4­­5­5­5­5­5­­0­0­0­­2­2­2­2­­­­­­­­| X2
A|­­­­­­­­­­­­­4­4­4­4­4­­5­5­5­5­5­­­­­­­­­0­0­0­0­­­­­­­­|
E|­­­­­­­­­­­­­2­2­2­2­2­­3­3­3­3­3­­­­­­­­­­­­­­­­­­­­­­­­|

       No se distinguir... besos...  raíces..

e|­­1­1­1­1­1­­1­1­1­1­1­­1­1­1­1­1­­3­3­3­3­3­­­­|
B|­­3­3­3­3­3­­3­3­3­3­3­­1­1­1­1­1­­3­3­3­3­3­­­­|     |
G|­­2­2­2­2­2­­2­2­2­2­2­­3­3­3­3­3­­5­5­5­5­5­­­­|     |
D|­­0­0­0­0­0­­0­0­0­0­0­­3­3­3­3­3­­5­5­5­5­5­­­­|     |
A|­­­­­­­­­­­­­­­­­­­­­­­­1­1­1­1­1­­3­3­3­3­3­­­­|     |
E|­­­­­­­­­­­­­­­­­­­­­­­­1­1­1­1­1­­3­3­3­3­3­­­­|     |
                                                        >  X2
                                                        |
e|­­1­1­1­1­1­­0­0­0­0­0­­1­1­1­1­1­­3­3­3­3­3­­­­|     |
B|­­3­3­3­3­3­­1­1­1­1­1­­1­1­1­1­1­­3­3­3­3­3­­­­|     |
G|­­2­2­2­2­2­­2­2­2­2­2­­3­3­3­3­3­­5­5­5­5­5­­­­|     |
D|­­0­0­0­0­0­­2­2­2­2­2­­3­3­3­3­3­­5­5­5­5­5­­­­|     |
A|­­­­­­­­­­­­­0­0­0­0­0­­1­1­1­1­1­­3­3­3­3­3­­­­|     |
E|­­­­­­­­­­­­­­­­­­­­­­­­1­1­1­1­1­­3­3­3­3­3­­­­|    /

e­­­­­­­­­­­­­­­­­­­­­­­­­­­­­­­­­­­­­­­­­­­­­­­­­­­­­­
b­­­­­­­­­­­6­­­5­­­­­­­5h6­5­­­­­­­­­­­­­­­1­­­­­­­­­­
g­­­­­­­­­7­­­7­­­5­­­5­­­­­­­5­­­­­­­3­­­3­­­­­­­5­­­­
D­­­­­­­­­­­­­­­­­­­­­­­­­­­­­­­­­­­3­­­3­­­­­­­5­­­­­­
A­3­3h5­5­­­­­­­­­­­0­­­­­­­­­­­0­1­­­­­­­­­­­3­­­­­­­­
E­­­­­­­­­­­­­­­­­­­­­­­­­­­­­­­­­­­­­­­­­­­­­­­­­­­­­­

e­­­­­­­­­­­­­­­­­­­­­­­5­­­­­­­­­­­­­­­­­­­1­1­­­­­­­­
b­­­­­­­­­­­6­­­5­­­­­­­­­5­­­­­­­­­­­­­­­1­1­1­­­­­­­­
g­­­­­­­­­7­­­7­­­5­­­5­­­­­5­­­­­­­3­­­3­­­2­2­­­­­­­­
D­­­­­­­­­­­­­­­­­­­­­­­­­­­­­­­­­3­­­3­­­­­3­3­­­­­­­­
A­3­3h5­5­­­­­­­­­­­0­­­­­­­­­0­1­­­­­­­­­­­3­3­­­­­­­­
E­­­­­­­­­­­­­­­­­­­­­­­­­­­­­­­­­­­­­­­­­­­1­1­­­­­­­­

e­­­­­­­­­­­­­­­­­­­­­­­­­­­­­­­­­­­­­­­­­­­­­­­­­­­­­­
b­­­­­­­­­­­6­­­5­­­­­­­5h6­5­­­­­­­­­­­­­­­1­­­­­­­­­­
g­­­­­­­­­7­­­7­­­5­­­5­­­­­­­5­­­­­­­3­­­3­­­­­­­5­­­­
D­­­­­­­­­­­­­­­­­­­­­­­­­­­­­­­­­­­3­­­3­­­­­­­5­­­­­­
A­3­3h5­5­­­­­­­­­­­0­­­­­­­­­­­0­1­­­­­­­­­­­3­­­­­­­­
E­­­­­­­­­­­­­­­­­­­­­­­­­­­­­­­­­­­­­­­­­­­­­­­­­­­­­­

e­­­­­­­­­­­­­­­­­­­­­­­5­­­­­­­­­­­­­­­­­­­1­1­­­­­­­­
b­­­­­­­­­­­6­­­5­­­­­­­­­5­­­­­­­­­­­­­­­1­1­1­6­5­3­­
g­­­­­­­­­7­­­7­­­5­­­5­­­­­5­­­­­­­3­­­3­­­2­2­­­­­­­­
D­­­­­­­­­­­­­­­­­­­­­­­­­­­­­­­­­3­­­3­­­­­3­3­­­­­­­­
A­3­3h5­5­­­­­­­­­­­0­­­­­­­­­0­1­­­­­­­­­­­3­3­­­­­­­­
E­­­­­­­­­­­­­­­­­­­­­­­­­­­­­­­­­­­­­­­­­­­1­1­­­­­­­­

e­­­­­­­­­/­­­­­­­­­­­­­­­­­­­­­­­­­­­­­­­­­­­­­­­­­­­­
b­1h3­3­­­/­­­­­­­­­­­­­­­­­­­­­­­­­­­­­­­­­­­­­­­­­­­­
g­­­­­­­­­/­­­­­­­­­­­­­­­­­­­­­­­­­­­­­­­­­­­­­­­­­­­­
D­­­­­­­­­/­­­­­­­­­­­­­­­­­­­­­­­­­­­­­­­­­­­­­­­­­­­­
A­­­­­­­­­/­­­­­­­­­­­­­­­­­­­­­­­­­­­­­­­­­­­­­­­­­­­­
E­­­­­­­­­/­­­­­­­­­­­­­­­­­­­­­­­­­­­­­­­­­­­­­­­­­­­­
e|­­2­2­2­2­2­­2­2­2­2­2­­3­3­3­3­3­­2­2­2­­0­0­0­0­­­­­­­­|
B|­­3­3­3­3­3­­2­2­2­2­2­­3­3­3­3­3­­3­3­3­­2­2­2­2­­­­­­­­|
G|­­2­2­2­2­2­­2­2­2­2­2­­4­4­4­4­4­­2­2­2­­2­2­2­2­­­­­­­­|
D|­­0­0­0­0­0­­4­4­4­4­4­­5­5­5­5­5­­0­0­0­­2­2­2­2­­­­­­­­| X2
A|­­­­­­­­­­­­­4­4­4­4­4­­5­5­5­5­5­­­­­­­­­0­0­0­0­­­­­­­­|
E|­­­­­­­­­­­­­2­2­2­2­2­­3­3­3­3­3­­­­­­­­­­­­­­­­­­­­­­­­|

          No se distinguir... besos...  raíces...

Final:

oh oh la chispa adecuada

(base rítmica)

e|­­1­1­1­1­1­­1­1­1­1­1­­1­1­1­1­1­­3­3­3­3­3­­­­|
B|­­3­3­3­3­3­­3­3­3­3­3­­1­1­1­1­1­­3­3­3­3­3­­­­|
G|­­2­2­2­2­2­­2­2­2­2­2­­3­3­3­3­3­­5­5­5­5­5­­­­|
D|­­0­0­0­0­0­­0­0­0­0­0­­3­3­3­3­3­­5­5­5­5­5­­­­|
A|­­­­­­­­­­­­­­­­­­­­­­­­1­1­1­1­1­­3­3­3­3­3­­­­|
E|­­­­­­­­­­­­­­­­­­­­­­­­1­1­1­1­1­­3­3­3­3­3­­­­|

e|­­1­1­1­1­1­­0­0­0­0­0­­1­1­1­1­1­­3­3­3­3­3­­­­|
B|­­3­3­3­3­3­­1­1­1­1­1­­1­1­1­1­1­­3­3­3­3­3­­­­|
G|­­2­2­2­2­2­­2­2­2­2­2­­3­3­3­3­3­­5­5­5­5­5­­­­|
D|­­0­0­0­0­0­­2­2­2­2­2­­3­3­3­3­3­­5­5­5­5­5­­­­|
A|­­­­­­­­­­­­­0­0­0­0­0­­1­1­1­1­1­­3­3­3­3­3­­­­|
E|­­­­­­­­­­­­­­­­­­­­­­­­1­1­1­1­1­­3­3­3­3­3­­­­|

(base con distorción)

e|­­­­­­­­­­­­­­­­­­­­­­­­­­­­­­­­­­­­­­­­­­­­­­­­­­­|
B|­­­­­­­­­­­­­­­­­­­­­­­­­­­­­­­­­­­­­­­­­­­­­­­­­­­|
G|­­­­­­­­­­­­­­­­­­­­­­­­­­­­­­­­­­­­­­­­­­­­­­­­­­­|
D|­­7­7­7­7­7­­7­7­7­7­7­­­­­­­­­­­­­­­­­­­­­­­­­­­­­|
A|­­5­5­5­5­5­­5­5­5­5­5­­8­8­8­8­8­­10­10­10­10­10­­|
E|­­­­­­­­­­­­­­­­­­­­­­­­6­6­6­6­6­­8­­8­­8­­8­­8­­­|

e|­­­­­­­­­­­­­­­­­­­­­­­­­­­­­­­­­­­­­­­­­­­­­­­­­­­|
B|­­­­­­­­­­­­­­­­­­­­­­­­­­­­­­­­­­­­­­­­­­­­­­­­­­­|
G|­­­­­­­­­­­­­­­­­­­­­­­­­­­­­­­­­­­­­­­­­­­­­­­­­­­|
D|­­7­7­7­7­7­­­­­­­­­­­­­­­­­­­­­­­­­­­­­­­­­­­­­­­­|
A|­­5­5­5­5­5­­7­7­7­7­7­­8­8­8­8­8­­10­10­10­10­10­­|
E|­­­­­­­­­­­­­5­5­5­5­5­­6­6­6­6­6­­8­­8­­8­­8­­8­­­|

la chispa adecuada

e|­­­­­­­­­­­­­­­­­­­­­­|
B|­­­­­­­­­­­­­­­­­­­­­­|
G|­­­­­10­­­9­­­­­­­­­­­|
D|­­­0­­­­0­­­10­7~­­­­­|
A|­­­­­­­­­­­­­­­­­­­­­­|
E|­­­­­­­­­­­­­­­­­­­­­­|
INTRO: Am G Dm D9 x2 (ESTOS ACORDES SE TOCAN JUNTO CON EL ARPEGIO)

   Am                               G
e|--0---0------0h1h0---0---------|--3---3-------------------------|
B|--1-----1----------3----1h0----|--3-----3----3h5h3---3----------|
G|--2-------2-----------------0--|--0-------0--------5---5-4------|
D|--2----------------------------|--0------------------------5/7--|
A|--0----------------------------|--------------------------------|
E|-------------------------------|--------------------------------|

 Dm                           D9
--------------0-----0------|--0------------------------|
--6---(6)-6-8---6----------|--1---0h1h0----------------|
--7---------------7---5h7--|--2---------2h0-0h2h0------|
--7------------------------|----------------------2h0--|
---------------------------|---------------------------|
---------------------------|---------------------------|

(ESTO DE ARRIBA SE REPITE 2 VECES)

 Am
e|--0---0------0h1h0---0---------|
B|--1-----1----------3----1h0----|
G|--2-------2-----------------0--|
D|-------------------------------|
A|-------------------------------|
E|-------------------------------|

G F Am

C              Em
 Siempre es la misma función,
    Am               C
el mismo espectador,
C          Em
 el mismo teatro,
           Am
en el que tantas veces... actuó,
           Em
perder la razón
  Am
en un juego tan real
C               Em
 quizás fuera un error,
G
cúrame esta herida... por favor.

e|--5----5---8---7---5-----------------|
B|--5--5---5---5---5---5--8---6---5----|
G|--5-----------------------5---5---5--|
D|-------------------------------------|
A|-------------------------------------|
E|-------------------------------------|

            Am
¿Qué hay en dos amigos,
    G
cuando después de todo,
   F
parecen perdidos,
      Am
y prefieren a otros?
¿qué dan lerdas manos,
     G
ignorando lo dado,
      Dm
si antaño se estrecharon,
        Am
ahora están engañados?
          Am
¿qué les hizo alejarse,
      G
de su "orilla intranquila",
       F
tan siquiera un instante,
     Am
piensan en esos días?

C              Em
 Siempre es la misma función,
    Am               C
el mismo espectador,
C          Em
 el mismo teatro,
           Am
en el que tantas veces... actuó,
           Em
perder la razón
  An
en un juego tan real
C               Em
 quizás fuera un error,
G
cúrame esta herida... por favor.

e|--0---0------0h1h0---0---------|--3---3-------------------------|
B|--1-----1----------3----1h0----|--3-----3----3h5h3---3----------|
G|--2-------2-----------------0--|--0-------0--------5---5-4------|
D|--2----------------------------|--0------------------------5/7--|
A|--0----------------------------|--------------------------------|
E|-------------------------------|--------------------------------|

--------------0-----0------|--0------------------------|
--6---(6)-6-8---6----------|--1---0h1h0----------------|
--7---------------7---5h7--|--2---------2h0-0h2h0------|
--7------------------------|----------------------2h0--|
---------------------------|---------------------------|
---------------------------|---------------------------|

          Am
Siempre he preferido,
    G
un beso prolongado,
        F
aunque sepa que miente,
        Am
aunque sepa que es falso.
       Am
¿que demonios ocurre,
     G
cuando miradas no se encuentran?
Dm                    Am
la pelea de gallos, se admiten apuestas.,
           Am
¿quién buscó abrigo,
      G
en algún otro lugar?,
       F
¿es posible que el frío,
     Am
venga con la edad?

C              Em
 Siempre es la misma función,
    Am               C
el mismo espectador,
C          Em
 el mismo teatro,
           Am
en el que tantas veces... actuó,
           Em
perder la razón
  An
en un juego tan real
C               Em
 quizás fuera un error,
G
cúrame esta herida... por favor.
INTRO: w/flanger & Delay

 Bm
                                                                     He oi___
|------------------------------------------------------------------------------|
|--4------4-----4------2------4----4-----4-----4----4------2------4-----4------|
|----4------------4------4-----------4-----4----------4------4------------4----|
|------2-----2------2------2-----2-----2-----2----2-----2------2-----2------2--|
|------------------------------------------------------------------------------|
|------------------------------------------------------------------------------|

Verse 1
  Em                                  C
  DO   que  LA________  no_che______  e__S  toda____  ma_gia_________

|-----------------------------------|------------------------------------|
|------8--7--------------8--7-------|-------8-7-------------8--7---------|
|-----------9---9--------------9----|-----9-----9---9-------------9------|
|---9---------9-------9----------9--|---9---------9-------9----------9---|
|-7----------------7----------------|------------------------------------|
|-----------------------------------|-8-----------------8----------------|

 D                                    Bm 
 y  que un duen_de____ te invita__ a  so__ña__r         y se_ que u___  

|------------------5----------------|------------------------------------|
|----------7-----------8---7--------|-----------------------7------------|
|-----7------7---7---7---7---7------|-----------------7-------7----------|
|---7---7------7---------------7----|---9-----9-----9---9-------9--------|
|-5------------------------------5--|-----9-----9---------9-------9------|
|-----------------------------------|-7-----7-----7----------------------|

  Em                                  C
     ltima__me___n_te_______         apena____s he____ parado__________ 

|-----------------------------------|------------------------------------|
|------8--7--------------8--7-------|-------8-7-------------8--7---------|
|-----------9---9--------------9----|-----9-----9---9-------------9------|
|---9---------9-------9----------9--|---9---------9-------9----------9---|
|-7----------------7----------------|------------------------------------|
|-----------------------------------|-8-----------------8----------------|

 D                                    Bm 
 y te__ngo  la  impresio__n  de divaga__r                         Ama___ne
|------------------5----------------|------------------------------------|
|----------7-----------8---7--------|-----------------------7------------|
|-----7------7---7---7---7---7------|-----------------7-------7----------|
|---7---7------7---------------7----|---9-----9-----9---9-------9--------|
|-5------------------------------5--|-----9-----9---------9-------9------|
|-----------------------------------|-7-----7-----7----------------------|

Chorus
 
 Em                                     G
____ce   ta__n    pron___to______  y   yo  esto__y   t__an    solo______

|-----------------------------------|-3-----3------3-----3-----3----3----|
|-8----8-7------------8-7-----------|-3-----3------3-----3-----3----3----|
|-9--------9-7-9----9-----9---------|-4-----4------4-----4-----4----4----|
|-9--9------------9---------9-------|-5-----5------5-----5-----5----5----|
|-7---------------------------------|-5-----5------5-----5-----5----5----|
|-----------------------------------|-3-----3------3-----3-----3----3----|

  D                                   Bm
 y no me arrepiento__oh_ de lo de a__ye_____r                      Las es__

|-5------------5--------------------|-----------------------2------------|
|-7----7-----------8---7------------|-----------------3-------3----------|
|-7-7----7---7---7---7---7----------|-4-4-----4-----4---4-------4--------|
|-7---7----7---------------7--------|-4---4-----4---------4-------4------|
|-5--------------------------5------|-2-----2-----2----------------------|
|-5---------------------------------|------------------------------------|

 Em                                     G
 _tre__llas te ilumina__n oh___ y te sirve__n de gui__a____          te

|-----------------------------------|-3-----3------3-----3-----3----3----|
|-8----8-7------------8-7-----------|-3-----3------3-----3-----3----3----|
|-9--------9-7-9----9-----9---------|-4-----4------4-----4-----4----4----|
|-9--9------------9---------9-------|-5-----5------5-----5-----5----5----|
|-7---------------------------------|-5-----5------5-----5-----5----5----|
|-----------------------------------|-3-----3------3-----3-----3----3----|

  D                                   Bm
 sien_tes  tan  fue_rte_   que piensa__s       que   nadie_  te pue__de__

|-5------------5--------------------|-----------------------2------------|
|-7----7-----------8---7------------|-----------------3-------3----------|
|-7-7----7---7---7---7---7----------|-4-4-----4-----4---4-------4--------|
|-7---7----7---------------7--------|-4---4-----4---------4-------4------|
|-5--------------------------5------|-2-----2-----2----------------------|
|-5---------------------------------|------------------------------------|

Interlue

 to__ca__r

  Em            D                      C                       D              Em

|-0-----------|-------10----10-------|---------7-----7-------|-----------7---|-------
|-8---8---8---|-7--------------7-----|--8---------------8----|--7------8---8-|-----8-
|-9-----------|---7---------------7--|----9-------9--------9-|----7----------|-7h9---
|-9-9---9---9-|-----7-----7----------|------10---------------|------7--------|-------
|-7-----------|----------------------|-----------------------|---------------|-------
|-------------|----------------------|-----------------------|---------------|-------

  D                        C                      D

|-------10-----10--------|--------7-----7-------|-----------------------|
|-7----------------7-----|-8---------------8----|-7-------8-7h8p7-------|
|---7-----------------7--|---9-------9--------9-|----7-------------9--7-|
|-----7-----7------------|-----10---------------|-------7---------------|
|------------------------|----------------------|-----------------------|
|------------------------|----------------------|-----------------------|

 Em                                         Bm
  
|-----------------------------------------|-----------------------------3---2--------
|-0-----3---1--0-----0-------3----1--0----|------3----2------------------------3--2--
|-0--0------------2---------------------0-|-4-----------4--2--4------4---------------
|-2--2----2---------------2-----2---------|-4--4----4--------------4------4----------
|-2--2------------------2-----------------|-2--2-------------------------------------
|-----------------------------------------|------------------------------------------

  G         D           G         D
                                                                                           LA_s
|--------------------------------------------|---------------------------------------
|-0------3-----1--0-----0------3-----1--0----|---------------------------------------
|---0-------2--------2----0-------2--------2-|--4-----4----4------4--4--4--4---4--4--
|-----0---------------------0----------------|----4----------4----4--4--4--4---4--4--
|--------------------------------------------|------2----2-----2--2--2--2--2---2--2--
|--------------------------------------------|---------------------------------------
Verse 2

  E5                                     C5                             D5
 dista__ncias se hacen co_rta__s  pasan ra__pida_s  la___s hora____s  y e_ste cuarto_ no para de 

|--------------------------------------|-------------------------------|-------------

        B5                    E5                            C5                        D5
 mengua___r    y  tanta__s  co__sa__s po_r decir  tan__ta cha__rla po___r aqui  si fu__era posible 

|------|--------------------|------------------------------|-------------------------

                       B5
es__capar de__ este luga____r              Ama__ne

|---------------------|---------------------------|

Chorus
 
 Em                                     G
____ce   ta__n    pron___to______  y   yo  esto__y   t__an    solo______

|-----------------------------------|-3-----3------3-----3-----3----3----|
|-8----8-7------------8-7-----------|-3-----3------3-----3-----3----3----|
|-9--------9-7-9----9-----9---------|-4-----4------4-----4-----4----4----|
|-9--9------------9---------9-------|-5-----5------5-----5-----5----5----|
|-7---------------------------------|-5-----5------5-----5-----5----5----|
|-----------------------------------|-3-----3------3-----3-----3----3----|

  D                                   Bm
 y no me arrepiento__oh_ de lo de a__ye_____r    si uh___         Las es__

|-5------------5--------------------|-----------------------2------------|
|-7----7-----------8---7------------|-----------------3-------3----------|
|-7-7----7---7---7---7---7----------|-4-4-----4-----4---4-------4--------|
|-7---7----7---------------7--------|-4---4-----4---------4-------4------|
|-5--------------------------5------|-2-----2-----2----------------------|
|-5---------------------------------|------------------------------------|

 Em                                     G
 _tre__llas te ilumina__n oh___ y te sirve__n de gui__a____          te
|-----------------------------------|-3-----3------3-----3-----3----3----|
|-8----8-7------------8-7-----------|-3-----3------3-----3-----3----3----|
|-9--------9-7-9----9-----9---------|-4-----4------4-----4-----4----4----|
|-9--9------------9---------9-------|-5-----5------5-----5-----5----5----|
|-7---------------------------------|-5-----5------5-----5-----5----5----|
|-----------------------------------|-3-----3------3-----3-----3----3----|

  D                                   Bm
 sien_tes  tan  fue_rte_   que piensa__s       que   nadie_  te pue__de__

|-5------------5--------------------|-----------------------2------------|
|-7----7-----------8---7------------|-----------------3-------3----------|
|-7-7----7---7---7---7---7----------|-4-4-----4-----4---4-------4--------|
|-7---7----7---------------7--------|-4---4-----4---------4-------4------|
|-5--------------------------5------|-2-----2-----2----------------------|
|-5---------------------------------|------------------------------------|

Interlue

 to__ca__r

  Em            D                      C                       D              Em

|-0-----------|-------10----10-------|---------7-----7-------|-----------7---|-------
|-8---8---8---|-7--------------7-----|--8---------------8----|--7------8---8-|-----8-
|-9-----------|---7---------------7--|----9-------9--------9-|----7----------|-7h9---
|-9-9---9---9-|-----7-----7----------|------10---------------|------7--------|-------
|-7-----------|----------------------|-----------------------|---------------|-------
|-------------|----------------------|-----------------------|---------------|-------

  D                        C                      D

|-------10-----10--------|--------7-----7-------|-----------------------|
|-7----------------7-----|-8---------------8----|-7-------8-7h8p7-------|
|---7-----------------7--|---9-------9--------9-|----7-------------9--7-|
|-----7-----7------------|-----10---------------|-------7---------------|
|------------------------|----------------------|-----------------------|
|------------------------|----------------------|-----------------------|

 Em                                         Bm
  
|-----------------------------------------|------3----2-----------------3---2--------
|-0-----3---1--0-----0-------3----1--0----|-------------3--2-------------------3--2--
|-0--0------------2---------------------0-|-4-----------------4------4----4----------
|-2--2----2---------------2-----2---------|-4--4----4------------4-------------------
|-2--2------------------2-----------------|-2--2-------------------------------------
|-----------------------------------------|------------------------------------------

  G         D           G         D
                                                                                         Ama__ne
|------------------------------------0-------|---------------------------------------
|-0------3-----1--0-----0------3--------3--1-|---------------------------------------
|---0-------2--------2----0-------2----------|--4-----4----4------4--4--4--4---4--4--
|-----0---------------------0----------------|----4----------4----4--4--4--4---4--4--
|--------------------------------------------|------2----2-----2--2--2--2--2---2--2--
|--------------------------------------------|---------------------------------------

Chorus
 
 Em                                     G
____ce   ta__n    pron___to______  y   yo  esto__y   t__an    solo______

|-----------------------------------|-3-----3------3-----3-----3----3----|
|-8----8-7------------8-7-----------|-3-----3------3-----3-----3----3----|
|-9--------9-7-9----9-----9---------|-4-----4------4-----4-----4----4----|
|-9--9------------9---------9-------|-5-----5------5-----5-----5----5----|
|-7---------------------------------|-5-----5------5-----5-----5----5----|
|-----------------------------------|-3-----3------3-----3-----3----3----|

  D                                   Bm
 y no me arrepiento__oh_ de lo de a__ye_____r    si uh___         Las es__

|-5------------5--------------------|-----------------------2------------|
|-7----7-----------8---7------------|-----------------3-------3----------|
|-7-7----7---7---7---7---7----------|-4-4-----4-----4---4-------4--------|
|-7---7----7---------------7--------|-4---4-----4---------4-------4------|
|-5--------------------------5------|-2-----2-----2----------------------|
|-5---------------------------------|------------------------------------|

 Em                                     G
 _tre__llas te ilumina__n oh___ y te sirve__n de gui__a____          te

|-----------------------------------|-3-----3------3-----3-----3----3----|
|-8----8-7------------8-7-----------|-3-----3------3-----3-----3----3----|
|-9--------9-7-9----9-----9---------|-4-----4------4-----4-----4----4----|
|-9--9------------9---------9-------|-5-----5------5-----5-----5----5----|
|-7---------------------------------|-5-----5------5-----5-----5----5----|
|-----------------------------------|-3-----3------3-----3-----3----3----|
  D                                   Bm
 sien_tes  tan  fue_rte_   que piensa__s       que   nadie_  te pue__de__

|-5------------5--------------------|-----------------------2------------|
|-7----7-----------8---7------------|-----------------3-------3----------|
|-7-7----7---7---7---7---7----------|-4-4-----4-----4---4-------4--------|
|-7---7----7---------------7--------|-4---4-----4---------4-------4------|
|-5--------------------------5------|-2-----2-----2----------------------|
|-5---------------------------------|------------------------------------|

  Em                      Em                                      Em

 to____ca______r

|--0------------0-------|---------------------------------------|------3--2----------
|--8------------8-------|-5--5--5--5--5--5--5--5--5--5--5--5--5-|-5----------5--3----
|--9------------9-------|-4--4--4--4--4--4--4--4--4--4--4--4--4-|---4--------------4-
|--9------------9-------|-2--2--2--2--2--2--2--2--2--2--2--2--2-|--------------------
|--7--------------------|---------------------------------------|--------------------
|--0--------------------|---------------------------------------|--------------------

  Bm                                    G        D           G          D

|--3--2----------------3--2----------|--------------0-----------------------0--------
|--------3--2-----------------3---2--|--0-----3--------3--1--0--------3--------3--1--
|--------------4---------------------|----0------2--------------0--------2-----------
|-----------------4------------------|------0----------------------0-----------------
|------------------------------------|-----------------------------------------------
|------------------------------------|-----------------------------------------------

  Bm                                         D5                   Em

|------------------------------------------|--------------------|--7--|
|------------------------------------------|--------------------|--8--|
|--4------4-----4---------4--x--x--4--x--x-|--7--x--x--7--x--x--|--9--|
|----4-------------4------4--x--x--4--x--x-|--7--x--x--7--x--x--|--9--|
|------2-----2--------2---2--2--2--2--2--2-|--5--5--5--5--5--5--|--7--|
|------------------------------------------|--------------------|--7--|
 Opio

Heroes del Silencio
Musica: P. Andreu, E. Bunbury, J. Cardiel, J. Valdivia y A. Boguslavsky
Album: Avalancha
EMI Records

Bueno, esta es la rola mas sencila y correcta que pude sacar. Aqui les va

  Riff 1
                 Gm                                          Dm
e|----------------------------------------------|------------------------------------
B|----------------------------------------------|------------------6--5h6------------
G|---------0--3--5h7----7-5h7p5----5--5h7--8\7--|------0--3--5h7-----------7--5--7---
D|------0-----------------------8---------------|---0--------------------------------
A|----------------------------------------------|------------------------------------
E|----------------------------------------------|------------------------------------

                  Bb                                              Dm
e|----------------------------------------------------------------------------------|
B|-------------------------------6----4--3h4--3------3h4--3-----------------8--7-7--|
G|---------0--3---5h7--5----7-5------------------5-----------5----7-----------------|
D|------0---------------------------------------------------------7-----------------|
A|----------------------------------------------------------------5-----------------|
E|----------------------------------------------------------------------------------|

Repite, pero sustituye la ultima 'barra' por esta otra:

                 F                                    Dm
e|---------------------------------------------------------------------------|
B|--------------------------------------------------------------8---7-7---8--|
G|---------0--3--5h7--5----5--3--5----8p7--------------------7----------7----|
D|------0---------------------------------10-8-7-5-1-------------------------|
A|----------------------------------------------------5----------------------|
E|---------------------------------------------------------------------------|

Verso 1
      Gm                                     Dm
e|-------------------------------------|---------------------------------|
B|-------------------------------------|---------------------------------|
G|-------------------------------------|-----7--7-7-7---5/7-7--7/8\7--7--|
D|----5-5-5---5-5-8--4/5--8\5--5--5-5--|--4--7--7-7-7---5/7-7--7/8\7--7--|
A|----5-5-5---5-5-8--4/5--8\5--5--5-5--|--4--5--5-5-5---3/5-5--5/6\5--5--|
E|----3-3-3---3-3-6--2/3--6\3--3--3-3--|--2------------------------------|
  
     F                                             Dm
e|---------------------------------------------|------------------------|
B|---------------------------------------------|-------3---3--3-3--3-3--|
G|--------4--0--4h6-4-----------4--0--4h6-4----|---2-------2--2-2--2-2--|
D|---8--------------------8--------------------|---0-------0--0-0--0-0--|
A|---8--------------------8--------------------|------------------------|
E|---6--------------------6--------------------|------------------------|
                                                 \­­­­­­­­­­­­­­­­­­­­/
 
Repite el verso y sustituye la parte senalada por esta :              
    Dm
e|------------------------|
B|--3---3-3-3----6--4--3--|
G|--2---2-2-2-------------|
D|--0---0-0-0-------------|
A|------------------------|
E|------------------------|

Estribillo              rasgueo                       rasgu.                         rasgu.
                    Bb /­­­­­­\                  Gm /­­­­­­­\                   D# /­­­­­­\
e|---------------------x-x-x-x-|---------------------3-3-3-3-|---------------------6-
B|---------------------3-3-3-3-|---------------------3-3-3-3-|---------------------8-
G|--------0---3---5h7--3-3-3-3-|--------0---3---5h7--3-3-3-3-|--------0---3---5h7--8-
D|----0----------------3-3-3-3-|----0----------------5-5-5-5-|----0----------------8-
A|---------------------1-1-1-1-|---------------------5-5-5-5-|---------------------6-
E|---------------------x-x-x-x-|---------------------3-3-3-3-|---------------------x-
                    
                    Cm  rasgu.                    Bb   rasgu.                   Gm  rasgu.
e|---------------------3-3-3-3-||--------------------x-x-x-x-|---------------------3-
B|---------------------4-4-4-4-||--------------------3-3-3-3-|---------------------3-
G|--------0---3---5h7--5-5-5-5-||-------0---3---5h7--3-3-3-3-|--------0---3---5h7--3-
D|----0----------------5-5-5-5-||---0----------------3-3-3-3-|----0----------------5-
A|---------------------3-3-3-3-||--------------------1-1-1-1-|---------------------5-
E|---------------------x-x-x-x-||--------------------x-x-x-x-|---------------------3-

                    D# rasgu.     Dm                  F
e|---------------------6-6-6-6-|-------------------|--1-1-1-1-1-1-1-1--|
B|---------------------8-8-8-8-|--3-3-3-3-3-3-3-3--|--1-1-1-1-1-1-1-1--|
G|---------------------8-8-8-8-|--2-2-2-2-2-2-2-2--|--2-2-2-2-2-2-2-2--|
D|--------0---3---5h7--8-8-8-8-|--0-0-0-0-0-0-0-0--|-------------------|
A|----0----------------6-6-6-6-|-------------------|-------------------|
E|---------------------x-x-x-x-|-------------------|-------------------|

  Riff 2
               Gm                                              Dm
e|-------------------------------------------|---------------------------------------
B|-------------------------------------------|---------------------6--5h6p5----------
G|-------0-3-5h7----7-5h7p5----5--5h7---8/7--|--------0---3--5h7-------------7--5--7-
D|----0---------------------8----------------|----0----------------------------------
A|-------------------------------------------|---------------------------------------
E|-------------------------------------------|---------------------------------------
                    F                                                  Dm                     
e|-------------------------------------------------------------------------------6/8-
B|-----------------------------------5h6---4--3h4--3------4h6--4---------------------
G|--------0---3---3h5--5--5-5--3--3-------------------5-----------7--5/7-------------
D|----0------------------------------------------------------------------------------
A|-----------------------------------------------------------------------------------
E|-----------------------------------------------------------------------------------

                 Gm                                                Dm
e|---7--5--------------------------------------------7--5--|-------------------------
B|---------------------------------------------------------|-----------6--5h6p5------
G|----------3--5h7---7--5h7p5---5--5/7--/8\5--5/7-\5-------|--3--5h7-------------7--5
D|----------------------------8----------------------------|-------------------------
A|---------------------------------------------------------|-------------------------
E|---------------------------------------------------------|-------------------------
    F    D#           F    D#       Dm
e|-----------------------------------------|
B|-----------------------------------------|
G|--2-2--8-8-8-8-8-8--2-2--8-8-8-8--7-7-7--|
D|--3-3--8-8-8-8-8-8--3-3--8-8-8-8--7-7-7--|
A|--3-3--6-6-6-6-6-6--3-3--6-6-6-6--5-5-5--|
E|-----------------------------------------|

 VERSO 1

 ESTRIBILLO

  Riff 3
      Gm                Bb                 D#               F             
e|-----------------|------------------|----------------|----------------|
B|-------3-----3---|-------3-----3----|-------8-----8--|-------1-----1--|
G|----3------3-----|----3------3------|----8------8----|----2------2----| Repite
D|----5------------|----3-------------|----8-----------|----3-----------| 4x
A|----5------------|----1-------------|----6-----------|----3-----------|
E|-----------------|------------------|----------------|----------------|
  Verso 2
    Gm                    Bb               D#                 F
e|---------------------|----------------|------------------|------------------|
B|-----------3---------|-----3----------|------------------|------------------|
G|--3---3--------3-----|--3-----3--3-3--|--8---8--8-8-8-8--|--2---2--2-2-2-2--| Repi
D|--5------5--------5--|--3-----3--3-3--|--8---8--8-8-8-8--|--2---2--2-2-2-2--| 4x
A|--5------------------|--1-----1--1-1--|--6---6--6-6-6-6--|--3---3--3-3-3-3--|
E|---------------------|----------------|------------------|------------------|

ESTRIBILLO 2X
(Solo voz)

En la vida conocí......                                ....que sin palabras

                                            Fig 1.......

  FA M(­5)?             SOL M                 LAm                   LAm/SOL
|-------------------|---------------------|----------------------|-------------------
|-----------0-------|------------0--------|---------1---1-0------|------1---1-0------
|-------2-------2---|--------0-------0----|-----------------2----|---------------2---
|-----3---3---3---3-|------0---0---0---0--|-------2---2-------2--|----2---2--------2-
|-------------------|---------------------|---0------------------|-------------------
|-1-----------------|---3-----------------|----------------------|--3----------------
  hablan                    que sin palabras hablan...

   LAm/FA#                MIM/SOL#              LAm                  LAm/SOL
|-------------------|----------0----------|----------------------|-------------------
|------1----1-0-----|---------------------|------1----1-0--------|-------1----1-0----
|---------------2---|------4--------4-----|---------------2------|----------------2--
|----2---2--------2-|----2---2----2---2---|----2---2--------2----|-----2---2--------2
|-------------------|---------------------|--0-------------------|-------------------
|-2-----------------|--4----------------4-|----------------------|---3---------------
                                             la Flaca duerme de   dia dice que asi el hambre
                         

     LAm/FA#         DO        SOL          LAm                     LAm/SOL 
|-------------------|---------------------|----------------------|-------------------
|------1----1-0-----|---------------------|------1----1-0--------|-------1----1-0----
|---------------2---|------0--------------|---------------2------|----------------2--
|----2---2--------2-|----2---2----0----0--|----2---2--------2----|-----2---2--------2
|-------------------|-3--------------2----|--0-------------------|-------------------
|-2-----------------|----------3----------|----------------------|---3---------------
  engaña y cuando la  noche baja a bailar a la tasca y bailar y bailar y tomar y tomar 

  LAm/FA#             MIM/SOL#               FA (­5)                SOL  
|-------------------|----------0----------|----------------------|-------------------
|------1----1-0-----|---------------------|----------0-----------|-------------------
|---------------2---|------4--------4-----|------2--------2------|-------0----2/4\2-0
|----2---2--------2-|----2---2----2---2---|----3---3---3----3----|-----0---0---------
|-------------------|---------------------|----------------------|-------------------
|-2-----------------|--4------------------|--1-------------------|---3---------------

una cerveza tras     otra pero ella nunca    engorda ,                  pero ella nunca engorda
                                

                   .... Final  Fig 1         Fig 2........

  LAm                  RE                      FAmaj7                 SOL     
|----------0--------|---------2--3p2------||--------0-------------|--------3---------
|--------1--1-------|-------3----3---3----||------1---1-----------|------3---3-------
|------2------2-----|-----2------------2--||----2-------2----2----|----0-------0-----
|----2----------2---|--0------------------||--3------------3------|------------------
|-0---------------0-|---------------------||----------------------|------------------
|-------------------|---------------------||----------------------|--3------------3--
                                             por un beso de la       Flaca  daría lo que 

  

                           Final  Fig 2     (Tocar  dos veces y depués....)
       
   LAm                 RE                                           FAmaj7
|----------0--------|-----------3p2-------|----------------------|--------0----------
|------1-----1------|------3----3---3-----|---Repetir Fig 2------|------1---1--------
|----2---2-----2----|----2---2--------2---|----------------------|----2-------2---2--
|----------------2--|-0-------------------|----------------------|--3-----------3----
|--0----------------|---------------------|----------------------|-------------------
|-------------------|---------------------|----------------------|-------------------
  fuera, por un beso de ella aunque solo uno fuera.....

   SOL                 LAm                   MI 
|---------3---------|-----------0---------|----------------------|-------------------
|-----3---------3---|-------1-----1----1--|--9-9---9-9-----------|-------------------
|---0---0----0----0-|-----2---2-----2-----|--9-9---9-9-----------|-------------------
|-------------------|---------------------|--9-9---9-9-----------|-------------------
|-------------------|--0------------------|----------------------|-------------------
|-3-----------------|---------------------|----------------------|-------------------
  ....aunque solo uno fuera.........
La segunda estrofa ( Moje mis sabanas blancas.....) y el estribillo se repite de la misma forma
con solo pequeñas variaciones. Para entender mejor los tiempos, y los ritmos asi como la estructura 
completa de la canción, sugiero que escucheis el CD.

Hasta luego.
Acordes:

   Cm  Fm  Gm  Dm  Am  Em  Bm  C#m
e|--3---1---3---5---5---7---2---4--|
B|--4---1---3---6---5---8---3---5--|
G|--5---1---3---7---5---9---4---6--|
D|--5---3---5---7---7---9---4---6--|
A|--3---3---5---5---7---7---2---4--|
E|--3---1---3---5---5---7---2---4--|

Bueno ahora si al grano:

Intro:

|----------------|----------------|----------------|
|----------------|----------------|----------------|
|----------------|----------------|----------------|
|----------------|---5-3----------|----------------|
|-------5b6r5-3~-|-3-----5b6r5-3~-|-------5b6r5-3~-|
|-3-6-3----------|----------------|-3-6-3----------|

-----------------|----------------|----------------|
-----------------|----------------|----------------|
-----3-----------|----------------|----------------|
­4h5­­­3b5­­­­­­­|­­­­­­­­­­­­­­­­|­­­­­­­­­­­­­­­­|
----------5b6-3~-|----------------|-------5b6r5-3~-|
-----------------|-4/3--2-0--7-8\-|-3-6-3----------|

Verso 1:

Cm                Bm/Cm      Cm/Dm      Cm     Bm/Cm   Cm/Dm Cm/Dm   
Puede que hayas nacido en la cara buena del mundo
Cm              Bm/Cm  Cm/Dm   Cm          Bm/Cm    Cm
Yo nací en la cara mala, llevo la marca del lado oscuro
        Fm*                       Gm*
Y no me sonrojo si te digo que te quiero
Cm                 Bm/Cm    Cm 
Y que me dejes o te deje, eso ya no me da miedo
        Fm*                     Gm*  riff 1      Cm
Habías sido sin dudarlo la más bella de entre todas
                     Bm/Cm              riff 2
las estrellas que yo vi en el firmamento.

verso 2: Se toca de la misma manera y se agregan los riffs:
                                     riff 3
Como ganarse el cielo cuando uno ama con toda el alma
Y es que el cariño que te tengo no se paga con dinero
Como decirte que sin ti muero
Y no me sonrojo si te digo que te quiero
Y que me dejes o te deje, eso ya no me da miedo
Habías sido sin dudarlo la más bella de entre todas
las estrellas que yo vi en el firmamento.  riff 2

SOLO 1:
|--------------------------------------|-------------------------------------
|--------------------------------------|-------------------------------------
|------8-------------------------------|-------------------------------------
|-8/10---10-8---------8----------------|-/10--/10-8--10-8------8--8h10-8---8-
|-------------10-8/10---10b11----------|------------------8h10-----------10--
|-----------------------------10b11--8-|-------------------------------------

----------------------------------------------------------------------------|
-----------------------88-----------------------8-10b11---------------------|
-----88------1010--------------88------1010--------------8/10-8-8/10--------|
8h10­­­­8h10­­­­­­8h10­­­­8h10­­­­8h10­­­­­­8h10­­­­­­­­­8/10­8­8/10­­­­­­­­|
---------------------------------------------------------------------10p9p8-|
----------------------------------------------------------------------------|

-----------------------------------------------------------------------------
-----------------------------------------------------------------------------
---------------------------------------------------------8-8----8-10b12-8----
-----------------------------------8-8-----8-10-10--8-10-----10-----------10-
---------------88----8-10-10--8-10------10-----------------------------------
8­8­1010­­8­10­­­­10­­­­­­­­­­­­­­­­­­­­­­­­­­­­­­­­­­­­­­­­­­­­­­­­­­­­­­­­­

----------------------------------------------|--11-11-11p8-8-8-8------------
----------------------------------------------|-------------------11-11-11p8-
­8/10\8­­­­­­­­­­­­­­­­­­­­­­­­­­­­­­­­­­­­­­­|­­­­­­­­­­­­­­­­­­­­­­­­­­­­­­
­8/10\8­­8/10­­8­­­­­­­­­­­­­­­­­­­­­­­­­­­­­­|­­­­­­­­­­­­­­­­­­­­­­­­­­­­­­
------------------8/10-8--8-10-8h10p8---------|------------------------------
--------------------------------------10-(9)-8|------------------------------

----------------------------------------------------------------------------|
­8­8­8­­­­­­­­­­­­­­­­­­­­­­­­­­­­­­­­­­­­­­­­­­­­­­­­­­­­­­­­­­­­­­­­­­­­­­|
-------10-10-10p8-8-8-----8-----8-------------------------------------------|
----------------------10----10-----10---8/10--8-----------------------------|
-------------------------------------------------10\8--6--------------------|
------------------------------------------------------------8--6--8\--------|
Verso 3: aqui se cambia de tono y se comienza de esta manera:

|----------------|
|----------------|
|----------------|
|----------------|
|-------7b8r7-5~-|
|-5-8-5----------|

Dm              Cm#/Dm      Dm/Em   Dm            Cm#/Dm  Dm/Em Dm/Em
Puede que hayas nacido en la cara buena del mundo
Dm              Cm#/Dm      Dm/Em   Dm            Cm#/Dm
Yo nací en la cara mala, llevo la marca del lado oscuro
          Gm*                      Am*   riff 4
Y no me sonrojo si te digo que te quiero
Dm              Cm#/Dm      Dm/Em   Dm            
Y que me dejes o te deje, eso ya no me da miedo
        Gm*                     Am*           Dm
Habías sido sin dudarlo la más bella de entre todas
                    Cm#/Dm
las estrellas que yo vi en el firmamento.
         Gm*                     Am*             Dm  Cm#/Dm
no me sonrojo si te digo que te quiero, si te digo que te quiero.

Gm*   Am*   Dm riff 5

Nota: Durante todo el solo, el acompañamiento es unicamente Dm

SOLO 2:
|---------------------------------------------------------------------------|
|--------------------------------10-----------------------------------------|
|---10-12-12h13-12~-----10-12-13----13-------10-----------------------------|
|-12------------------12------------------12-----12-12-10----10-------------|
|---------------------------------------------------------12-----10/8-------|
|---------------------------------------------------------------------10-10-|

--------------------------|--------------------------------------------------
--------------------------|----------------------------10-------------13-10--
--------------------------|----------------------10h12----12-10--------------
--------------------------|----------------10-12----------------12-----------
-----8-10p8-----8---------|-------10-10/12-----------------------------------
­/10­­­­­­­­10­­­­10­10/­­|­10­12­­­­­­­­­­­­­­­­­­­­­­­­­­­­­­­­­­­­­­­­­­­­
-------------------------------------------------|-----------13-12-10h12p10-|
-------------------------------------------------|--------------------------|
­12­10­­­­12­10­­­­­­­­­­­­­­­­­­­­­­­­­­­­­­­­­­|­­­­­­10­­­­­­­­­­­­­­­­­­|
-------12-------12---10----10-------------10-12--|--/12---------------------|
------------------------12----12-12-10-12--------|--------------------------|
-------------------------------------------------|--------------------------|

--9b11-10-8------------------------------------------------------------------
------------10-8-8/6-----8-----10p9p8-----6---------6-8-6h8p6-----6----------
---------------------7-----7----------7-----7-7----------------7-----7-------
-----------------------------------------------------------------------------
-----------------------------------------------------------------------------
-----------------------------------------------------------------------------

* segunda guitarra, (pequeño riff)
|-----------------------------|
|-8--8--8p6--------6-6h8p6----|
|--------------7------------7-|
|-----------------------------|
|-----------------------------|
|-----------------------------|

­10­10­10p8­­­­­­­8­8h10p8­­­­­­10/­­|­­16b18­­16b18­­|­­13­10­10­10­­12b13­|
--------------10----------------10/--|----------------|---------------------|
-------------------------------------|----------------|---------------------|
-------------------------------------|----------------|---------------------|
-------------------------------------|----------------|---------------------|
-------------------------------------|----------------|---------------------|

                                                  *otra vez segunda guitarra
                                                 |­­­­­­­­­­­­­­­­­­­­­­­­­­|
                                                 |­­­­­­­­­­­­­­­­­­­­­­­­­­|
                                                 |10­12­12~­­­­­­10h12p10­­­|
                                                 |­­­­­­­­­­­­­­­­­­­­­­x12/|
                                                 |­­­­­­­­­­­­­­­­­­­­­­­­­­|
                                                 |­­­­­­­­­­­­­­­­­­­­­­­­­­|

---13-1212-10----10-------10---------------------|--------------------------|
10­­­­­­­­­­­­13­­­­13b15­­­­13­10­­­­­­­­­­­­­­­|­­­­­­­­­­­­­­­­­­­­­­­­­­|
-----------------------------------12-10-12-10---|10-12-12h13-12-10h12p10---|
-----------------------------------------------12|-----------------------12/|
-------------------------------------------------|--------------------------|
-------------------------------------------------|--------------------------|

|-----------------------------------------------------------|----------------
|-----------------------------------------------------------|----------------
|-----------------------------------------------------------|----------------
|-----------------------------------------------------------|-------------10-
|----8----8-10/12--12/10-10p8-10p8--------------------------|-----8-10/12----
|-10---10--------------------------10-10---10--8/5-8~-10/18-|-/10------------

--------------|----------------------------------------------------|---------
--------------|----------------------------------------------------|---------
-------8-10-8-|12-11-10p9------------------------------------------|---------
­10­12­­­­­­­­|­­­­­­­­­­­12­­12­11p10­­­­­­­­­­­­­­­­­­­­­­­­­­­­­|10­­12­12
--------------|------------------------12--12/10p8--12/10--8-10/12~|--12-----
--------------|----------------------------------------------------|---------
                                          *fade out
-----------------------------------|------|-8b11~-10p8-10p8-----------------|
-----------------------------------|------|-----------------10-8-10p8---8-10|
-----------------------------------|-2/12-|---------------------------8-----|
--12-12/10-------------------------|-2/12-|---------------------------------|
-----------12-12--10/8----8--------|------|---------------------------------|
-----------------------10----10-10-|--no--|---------------------------------|
                                    *tengo idea si esta partecita esta bien
----13-12-10--12p10----10---10p8---------------------|-------15~|----13-13--
--------------------13-----------11--11p10p8---------|----15----|-15--------
­10­­­­­­­­­­­­­­­­­­­­­­­­­­­­­­­­­­­­­­­­­­10­10/1­|­3/­­­­­­­|­­­­­­­­­­­
-----------------------------------------------------|----------|-----------
-----------------------------------------------------|----------|-----------
-----------------------------------------------------|----------|-----------

----15p13------17-15-15p13----13-------|-------12b14~-12b14~|-------10--13--
­15­­­­­­­15­­­­­­­­­­­­­­­15­­­­15­15­|­10/13­­­­­­­­­­­­­­|­13b16­­­­­­­­­
---------------------------------------|--------------------|---------------
---------------------------------------|--------------------|---------------
---------------------------------------|--------------------|---------------
---------------------------------------|--------------------|---------------

-------10-13---------10-13---------10--14b16~------------------------------|
­13b16­­­­­­­­13b16­­­­­­­­­13b16­­­­­­­­­­­­­­­­­­­­­­­­­­­­­­­­­­­­­­­­­­|
---------------------------------------------------------------------------|
---------------------------------------------------------------------------|
---------------------------------------------------------------------------|
---------------------------------------------------------------------------|

Riffs:

|-----------------------|
|-----------------------|
|-----------------------| riff 1
|-----------------------|
|------8-10-8h10p8------|
|-8-10-------------10-8-|

|----------------|
|----------------|
|----------------| riff 2
|----------------|
|-------5b6r5-3~-|
|-3-6-3----------|

|-------10-9-8-|
|--------------|
|-----8--------| riff 3
|-/10----------|
|--------------|
|--------------|

|----------------------------|
|----------------------------|
|----------------------------| riff 4
|----------------------------|
|-------10-12-10h12p10-------|
|-10-12----------------12-10-|

|-----------------|
|-----------------|
|-----------------| riff 5
|-----------------|
|-5--3---------5~-|
|------5-3--1-----|
Primera parte de la intro:

guitarra 1
|-8^p5-|-8^\5/12-12-|---5---|---------|-------------|-----------|------|
|------|------------|-6---5-|---------|-------------|-----------|-5----|
|------|------------|-------|-5\4-----|-5\4---------|-5\1-1-----|----2-|
|------|------------|-------|------3^-|-----2^------|-----------|------|
|------|------------|-------|---------|-------------|-----------|------|
|------|------------|-------|---------|-------------|-----------|------|

guitarra 2
|------|------------|-------|-----18^^|-----------12|-----------|------|
|------|------------|-------|---------|----12^p10---|-----------|------|
|------|------------|-------|---------|-------------|-----------|------|
|------|------------|-------|---------|-------------|-----3\1/4-|------|
|------|------------|-------|---------|-------------|-----------|------|
|------|------------|-------|---------|-------------|-----------|------|

segunda parte de la intro:
 
 gtr 1
|--------|-----------------------------------|
|--------|--------1----------1----------3----|
|--------|-----------2----------2----------1-|
|--------|----3-----------2-----------2------|
|--------|--------------0--------------------|
|--------|-1------------------------0--------|
 
 gtr 2
|--------|-----------------------------------|
|--------|-----------------------------------|
|--------|-------1h2**-----------------------|
|--------|-----------------------------------|
|-3~\1/3-|-----------------------------------|
|--------|-----------------------------------|

 gtr 1
|--------------------------------------------------X------------|
|--------1-------------1---------1------------3----X-------1----|
|-----------2------------2----------2------------1-X----------2-| 1
|----3--------------3---------2------------2-------X----3-------|
|---------------------------0----------------------X------------|
|-1------------0-1----------------------0----------X-1----------|
 
                                                   X Hay dos dias en la vida
 Gtr 2
|--------------------------------------------------------------|
|-----1-1-1----1-3-4p3p1-3-1----1-1----1p0--1p0----------------|
|---x2-------x2---------------2-----2-----------2-0-2----------|
|--------------------------------------------------------------|
|--------------------------------------------------------------|
|--------------------------------------------------------------|

gtr 1
|--------------------------------------|
|---------1----------1------------3----|
|------------2----------2------------1-| (RIFF 1)
|-------3---------2------------2-------|
|---------------0----------------------|
|-0-1----------------------0-----------|

para los que no naci, dos momentos en la vida que no existen para mi

|-----------------------------------------------------0--|
|--------1-------------1---------1------------3-------1--|
|-----------2------------2----------2------------1----2--|
|----3--------------3---------2------------2----------2--|
|---------------------------0-------------------------0--|
|-1------------0-1----------------------0-------------0--|

ciertas cosas en la vida, no se hicieron para mi, hay
dos dias en la vida para los que no naci

primer solo:

|----12-15-15--12---------10h12-------------------|
|-15---------------15-13-------------13-13--10----|
|-------------------------------------------------|
|-------------------------------------------------|
|-------------------------------------------------|
|-------------------------------------------------|

|---------------------------------------------------|
|----10-13-13------10-13-10-------------------------|
|-12------------12-----------12---------------------|
|-------------------------------12p10--12p10--12p10-|
|---------------------------------------------------|
|---------------------------------------------------|

                   Am         
El primero de esos días, fue cuando te conocí
                    Dm   G                C  E7
Me atraparon tus mentiras y me enamore de ti
                  Am
Del camelo de tus risas, de tus ganas de vivir
                       Dm                       E7
De la crueldad de tus caricias por las que creí morir

Coro (con el riff 1 de arriba):
                   F                      Am                         
Hay dos días en la vida, para los que no nací                     
                  E7                        F 
Dos momentos en la vida que no existen para mi
                    F                        Am
Ciertas cosas en la vida, no se hicieron para mi
                  E7                     Am            
Hay dos días en la vida para los que no nací

Segundo solo (lo mejor que pude hacer):

|--7h8-7h8p7--5-------7h8-7h8p7--5---------------------------------------------------
|----------------6-------------------5--------------5--------------------------------
|----------------------------------------------5h7-----5h7----5h7p5h7p5----5-5-------
|-----------------------------------------5h7---------------------------7-------7-5h7
|------------------------------------------------------------------------------------
|------------------------------------------------------------------------------------

|--7h8-7h8p7--5-------7h8-7h8p7--5--------------------------------------------|
|----------------6-------------------5-------8-10-----8-10-----8-10-----8-10--|
|-----------------------------------------9b-------9b-------9b-------9b-------|
|-----------------------------------------------------------------------------|
|-----------------------------------------------------------------------------|
|-----------------------------------------------------------------------------|

|------------------------------------|
|------------------------------------|
|--7h9p7--5h7p5----5-----------------|
|----------------7---7-5h7p5--7-5h7--|
|------------------------------------|
|------------------------------------|
                   Am
El segundo de esos días fue justo el que te perdí
                 Dm   G                  C   E7 
Se fue tu cara bonita, y mis ganas de vivir
                   Am
Se acabaron las mentiras y de todo aprendí
                       Dm                    E7 
Que hay dos días en la vida para los que no nací

Hay dos días en la vida......................(se repite)

                    F                          Am
Me trague todo el veneno, del que llevaban tus besos
                   E7                        Am
Me empape del sufrimiento que escondia tu sonrisa
                      F                         Am
Descubri que con el tiempo, me perdi todo el respeto
                   E7                           Am
Compraste mis sentimientos con tus labios de carmin

Esta es la escala, los numeros son los trastes y las
letras las cuerdas, los taches son las unicas notas
que debes tocar:

    0     1     2     3     4     5     6     7     8     9    10    11     12 
e|--X--|--X--|-----|--X--|-----|--X--|-----|--X--|--X--|-----|--X--|-----|--X--|
B|--X--|--X--|-----|--X--|-----|--X--|--X--|-----|--X--|-----|--X--|-----|-----|
G|--X--|-----|--X--|-----|--X--|--X--|-----|--X--|-----|--X--|--X--|-----|--X--|
D|--X--|-----|--X--|--X--|-----|--X--|-----|--X--|-----|--X--|--X--|-----|--X--|
A|--X--|-----|--X--|--X--|-----|--X--|-----|--X--|--X--|-----|--X--|-----|--X--|
E|--X--|--X--|-----|--X--|-----|--X--|-----|--X--|--X--|-----|--X--|-----|--X--|
  Dm7  Gm7  C7  F   A#  Dm ó  A
|-1----3----3---1---1---1--5---0---|
|-1----3----5---1---3---3--6---2---|
|-2----3----3---2---3---2--7---2---|
|-0----3----5---3---3---0--7---2---|
|-x----5----3---3---1---x--5---0---|
|-x----3----3---1---1---x--5---x---|

   Dm7                    Gm7               C7                 F
e||-------1-|------------|---------|-------|---------|--------|---------|
B||---1-----|------6-----|-------3-|-------|-------5-|--------|-------1-|
G||-----2---|----------7-|---3-----|-5h7p5-|---3-----|-5h7----|---2-----|
D||-0-------|-6/7----7---|-----3---|-------|-----5---|-----7~-|-----3---|
A||---------|------------|---------|-------|-3-------|--------|---------|
E||---------|------------|-3-------|-------|---------|--------|-1-------|
            Dm7      Gm7                             C7
e|-----------|-------1-|---------|---------------------|---------|-------------------
B|-----------|---1-----|-------3-|---------------------|-------5-|-----------10------
G|-9h10h9-10-|-----2---|---3-----|/12-10-9-10-12-10/12-|---3-----|-(9)-10-12----10h12
D|-----------|-0-------|-----3---|---------------------|-----5---|-------------------
A|-----------|---------|---------|---------------------|-3-------|-------------------
E|-----------|---------|-3-------|---------------------|---------|-------------------
  F
e|---------|-----------||
B|-------1-|-/6-/8-/10-||
G|---2-----|-/7-/9-/10-||
D|-----3---|-----------||
A|---------|-----------||
E|-1-------|-----------||

Dm7                  Gm7
Como quieres ser mi amiga
C7            F
si por ti daría la vida,
FILL 1                 
e|----------------------|
B|----------------------|
G|------7\5-5/7---------|
D|-5/7----------7\5-3-5-|
A|----------------------|
E|----------------------|

Dm7            Gm7
si confundo tu sonrisa
C7            F
por camelo si me miras.

FILL 2 *        
|---------------|
|---6/8----8/10-|
|-7--/(9)--9/10-|
|---------------|
|---------------|
|---------------|

*SLIDE AFECTA A
AMBAS CUERDAS

Dm7      Gm7   C7     F
Razón y piel, difícil mezcla,

FILL 3
|--------------------|
|------10-11-10-8----|
|--/10------------10-|
|-/(10)--------------|
|--------------------|
|--------------------|

Dm7      Gm7  C7    F
agua y sed, serio problema.

FILL 4                    /====\          
e|-----------------------------------------|
B|-10-11-10h11p10-11-10----8b(10)r----8----|
G|----------------------10---------10---10-|
D|-----------------------------------------|
A|-----------------------------------------|
E|-----------------------------------------|

2° VERSO

Dm7                  Gm7
Como quieres ser mi amiga
C7            F
si por ti me perdería

FILL 5
|------------|
|(6)/8­6­8­6­|
|------------|
|------------|
|------------|
|------------|

Dm7            Gm7
si confundo tus caricias

FILL 6                         
e|------------------------------|
B|-10/13-11-10-11-8-10----------|
G|(10)­­­­­­­­­­­­­­­­­10h12p10­|
D|------------------------------|
A|------------------------------|
E|------------------------------|

C7            F
por camelo si me mimas.

FILL 7
|------------------------|
|-------10---------------|
|-10-12-12b(14)-10-12p10-|
|------------------------|
|------------------------|
|------------------------|

Dm7      Gm7
Pasión y ley,

FILL 8             
e|-10-8-10----------|
B|---------8h10p8---|
G|----------------10|
D|------------------|
A|------------------|
E|------------------|

C7      F
difícil mezcla,

FILL 9 /===\    /­­\        
|-10------------------------|
|------8b(10)r(8)b(9)r------|
|----------------------10-7-|
|---------------------------|
|---------------------------|
|---------------------------|

Dm7      Gm7
agua y sed, 

FILL 10
|----------------|
|----------------|
|-----10---7-7\5-|
|-7/9----7-------|
|----------------|
|----------------|

ESTRIBILLO

  DO7     FA              C7            Dm           C7           A#
  Serio problema. Cuando uno     tiene sed, pero el agua     no esta cerca
e|---------------|----------------------------------------------------------|
B|------10h11p10-|-------10h11p10---8---10-----------10h11p10-----8------6--|
G|---------------|----------------------------------------------------------|
D|---------------|----------------------------------------------------------|
A|---------------|----------------------------------------------------------|
E|---------------|----------------------------------------------------------|
          C7             Dm            C7           A#
  Cuando uno    quiere beber, pero el agua  no esta cerca.                          
                                           ESTRIBILLO ACABA\
e|--------------------------------------------------------|-10h13p10-----------|
B|-------10h11p10-----8-13-10------10h11p10----8\6--------|---------(10h11p10)-|
G|---------------------------------------------------7----|--------------------|
D|--------------------------------------------------------|--------------------|
A|--------------------------------------------------------|--------------------|
E|--------------------------------------------------------|--------------------|

PUENTE
      F
Qué hacer,     

FILL 11           
e|------------10-8-|
B|-10-10p8h10------|
G|-10--------------|
D|-----------------|
A|-----------------|
E|-----------------|

Dm           A
      tú lo sabes

FILL 12           /­­\     
|--------------------------|
|-----5--------------------|
|-5/7---5---------7b(8)r---|
|---------7-5---5--------7-|
|-------------7------------|
|--------------------------|

A#          F  
    conservar       

FILL 13             /===\
|------------------------------|
|------------------------------|
|---------10h12p10-12b(14)r-10-|
|10h11p10­­­­­­­­­­­­­­­­­­­­­­|
|------------------------------|
|------------------------------|

Dm         A
    la distancia

FILL 14                                 
e|-10-9----13-(10)-(13)/15-(13)/15-13~--|--13.-|
B|------10------------------------------|------|
G|--------------------------------------|------|
D|--------------------------------------|------|
A|--------------------------------------|------|
E|--------------------------------------|------|

A#           F 
     renunciar      

  FILL 15                     /­­­­\         
|-----------------------------------------|
|-10h11p10----10------------------10b(14)-|
|----------12----12b(13)r\(10)-12---------|
|-----------------------------------------|
|-----------------------------------------|
|-----------------------------------------|

Dm            A
     a lo natural

FILL 16
|-8/9---------------------|
|-----8/9----8-(8)/10.----|
|---------10-----------10-|
|-------------------------|
|-------------------------|
|-------------------------|

A#         F  
     y dejar       

FILL 17                       
e|---8-------------------------|
B|--10-11-10h11p10-8----8-10---|
G|-10----------------10---10-7-|
D|-----------------------------|
A|-----------------------------|
E|-----------------------------|
   

Dm                A
     que el agua corra.

VERSO

Dm7                      Gm7
Como quieres vas a ser mi amiga

FILL 18                 
|-5-5-6-6-(8)/10-10-8-8-|
|-----------------------|
|-----------------------|
|-----------------------|
|-----------------------|
|-----------------------|

C7                 F
cuando esta carta recibas,

FILL 19
|--------------------|
|-10-10-10-8----8-10-|
|-10-10-10---10------|
|--------------------|
|--------------------|
|--------------------|

Dm7            Gm7
un mensaje hay entre líneas,

FILL 20
e|----------------|
B|-10/13-11-10----|
G|(10)­­­­­­­­­12­|
D|----------------|
A|----------------|
E|----------------|

C7            
cómo quieres ser 

         F                     C7         Dm            C7        A#
...mi amiga.       Cuando     uno tiene sed,  pero el agua  no esta cerca
 |====\
e|-------------|----------------------------------------------------------|
B|-------------|------10h11p10--8-6--8/10----10-11-10--8--6---------------|
G|-12pb(14)r-10/12-------------------------------------------------7------|
D|-------------|----------------------------------------------------------|
A|-------------|----------------------------------------------------------|
E|-------------|----------------------------------------------------------|

          C7                Dm           C7           A#
  Cuando uno   quiere   beber, pero el agua no esta cerca...
e|----------------------------------------------------------|-------------|
B|------10--10-11-10--8-13-10-------------------------------|-------------|
G|------10--------------------------------------------------|---FADE------|
D|----------------------------------------------------------|--------OUT--|
A|----------------------------------------------------------|-------------|
E|----------------------------------------------------------|-------------|
 
INTRO:

E--------------------------------------|
B--12-12-10-10----------12-10-10-------|
G--------------12-12-11----------12-12-|
D--------------------------------------|
A--------------------------------------|
E--------------------------------------|

E-------------------------9-10-9--|
B-12-12-10-10-------10-12---------|
G-------------12-12---------------|
D---------------------------------|
A---------------------------------|
E---------------------------------|

E------------------------------------|
B-10-10---------------10-------------|
G-------12-12-11-11-9----12-12-11-11-|
D------------------------------------|
A------------------------------------|
E------------------------------------|

E----------------------------------|
B-10-10----------------10-12-13-12-|
G-------12-12-11-11-12-------------|
D----------------------------------|
A----------------------------------|
E----------------------------------|

Em7               A
Tan pura la vida y tu
              F#m
tan llena de paz
   B7
y solo se me ocurre amarte

Em7                A
Llenas mi vida de luz
                    F#m
llenas el cielo, la tierra y el mar
            B7
y a mi tan solo se me ocurre amarte

Em7
No existe un corazón que lo resista niña
A
pero si lloras quiero que mis ojos
 F#m
sigan cada lagrima tuya
    B7
hasta que la pierdan de vista

          G          F#m    Em7 D
La miro a ella y te miro a ti usa mi alma
C#*
como una cometa y yo muero de ganas
F#m                   F#7
de encontrar la forma de enseñarte el alma
   B7
y solo se me ocurre amarte

              G       A                      F#m
Como va a ser eso, si aun cuando sale la luna
               Bm       F#7
y da en mi ventana, no te puedo dejar de querer
            C#7                 F#m
nos hemos reído y llorado los tres

           G                      F#
Yo quiero darte mi alegría mi guitarra y mis poesías
   D7
y solo se me ocurre amarte

              G       A                       F#m
Como va a ser eso, si aun cuando sale la luna
               Bm       F#7
y da en mi ventana, no te puedo dejar de querer
            C#7                 F#m
nos hemos reído y llorado los tres
           G                      F#
Yo quiero darte mi alegría mi guitarra y mis poesías
   D7
y solo se me ocurre amarte
   C7                 B7
y solo se me ocurre amarte...

E--------------------------------------|
B--12-12-10-10----------12-10-10-------|
G--------------12-12-11----------12-12-|
D--------------------------------------|
A--------------------------------------|
E--------------------------------------|

E-------------------------9-10-9--|
B-12-12-10-10-------10-12---------|
G-------------12-12---------------|
D---------------------------------|
A---------------------------------|
E---------------------------------|

E------------------------------------|
B-10-10---------------10-------------|
G-------12-12-11-11-9----12-12-11-11-|
D------------------------------------|
A------------------------------------|
E------------------------------------|

E----------------------------------|
B-10-10----------------10-12-13-12-|
G-------12-12-11-11-12-------------|
D----------------------------------|
A----------------------------------|
E----------------------------------|

Em7             A
Tan pura la vida y tu
             F#m
tan llena de paz y de luz
   B7
y solo se me ocurre amarte

Em7                A
Llenas mi vida de luz
                     F#m
llenas mi cielo, mi tierra y mi mar
            B7
y a mi tan solo se me ocurre amarte

          Bm/G#
La miro a ella y te miro a ti
            Gm
usa mi alma como una cometa

y yo me muero de ganas
 F#m
de encontrar la forma
 F#7
de enseñarte el alma
   B7
y solo se me ocurre amarte

              G       A                       F#m
Como va a ser eso, si aun cuando sale la luna
               Bm       F#7
y da en mi ventana, no te puedo dejar de querer
            C#7                 F#m
nos hemos reído y llorado los tres

           G                      F#
Yo quiero darte mi alegría ,quiero darte algo importante
   D7
y solo se me ocurre amarte

G       A                       F#m
Como va a ser eso, si aun cuando sale la luna
               Bm       F#7
y da en mi ventana, no te puedo dejar de querer
            C#7                 F#m
nos hemos reído y llorado los tres

 G                      F#
Yo quiero darte mi alegría ,mi guitarra y mis poesias
   D7
y solo se me ocurre amarte

G       A                       F#m
Como va a ser eso, si aun cuando sale la luna
               Bm       F#7
y da en mi ventana, no te puedo dejar de querer
            C#7                 F#m
nos hemos reído y llorado los tres

 G                      F#
Yo quiero darte mi alegría ,yo quiero darte mis poesias
   D7
y solo se me ocurre amarte
   C7                 B7
y solo se me ocurre amarte...  (Se queda en B7 y termina en Em)
despensa Despensa
enjuague bucal Enjuague Bucal
pasta de dientes Pasta De Dientes
cereal Cereal
mantequilla Mantequilla
galón de leche Galón De Leche
detergente Detergente
pinol Pinol
pantalón para leo Pantalón Para Leo