You are on page 1of 3

-------------------------------------------------------------------------------

LUMINOL - Steven Wilson


-------------------------------------------------------------------------------
Tabbed by: Peppenwolf
E-mail: ollipetteri@gmail.com

Tuning: Standard (EADG)

Hello, this is my first tab but it's quite accurate. The bassist used a pick on the
recorded version and didn't use any hammer-ons but he uses them while playing live.
This tab
includes the first three mains riffs of the song. Enjoy!

3x
G||--------------||
D||444-444-444---||
A||--------------||
E||-------------2||

4x
G||-------------|-------------|---------------------------||
D||--------2---1|----------2--|--------2---1--------------||
A||----2h4---4--|----0h2h4---4|----2h4---4---5-0-4-0-3p2-0||
E||2-0----------|2-0----------|2-0------------------------||

3x
G||----------||-----------|
D||4-4-2h4---||4-4-2h4-5-2|
A||----------||-----------|
E||--------2/||-----------|

3x
G||----------||-----------|
D||4-4-2h4---||-----------|
A||----------||0-0-1-1-2--|
E||--------2/||----------0|

G||----------------------------------------------2h4||
D||------------------------------------------2h4----||
A||----------3-x-x-3-2h3-3/-0-x-0h3-6p5-2-x---------|| PLAY
E||0-2-2-0-2----------------------------------------|| THESE
TWO
G||-------------------------------------------|| IN
D||-------------------------------------------|| A ROW
A||----------3-x-x-3-2h3-3/-0-x-0h3-6p5-2--0-3||
E||0-2-2-0-2----------------------------------||

*************************************

| / slide up
| \ slide down
| h hammer-on
| p pull-off
| ~ vibrato
| + harmonic
| x Mute note
*************************************

nico42 41 Mar 08, 2013 12:16 PM -----------------------------------------------

Pretty close, I'd only suggest the following minor corrections:

G||-------------|-------------|---------------------------||
D||--------2---1|----------2--|--------2---1--------------||
A||------4---4--|------2h4---4|------4---4---5-0-4-0-3p2-0||
E||2-0-2--------|2-0-2--------|2-0-2----------------------||

...and

G||-------------------------------------------------||
D||----------------------------------------------7h9||
A||----------3-x-x-3-2h3-3/-0-x-----6p5------7h9----||
E||0-2-2-0-2--------------------5h6-----7-x---------||

Although it is quite hard to hear exactly with a bass sound like this.

eliaagri 10 Sep 26, 2013 08:08 AM ---------------------------------------------

Wow it's Pretty accurate but need some minor corrections i think. this is a very
hard song to tab and very hard to sound like the original track but i think this
here is more like it in sound ! cheers!
3x
G||--------------||
D||444-444-444---||
A||--------------||
E||-------------2||

4x
G||-------------|--------------|---------------------------||
D||--------2---1|----------2---|--------2---1--------------||
A||------4---4--|-----0h2h4---4|------4---4---5-0-4-0-3p2-0||
E||2-0-2--------|2-0-----------|2-0-2----------------------||

2x
G||-----------||-----------||-----------||-----------|
D||-----------||-----------||-----------||-----------|
A||7-7-5h7----||7-7-5h7----||7-7-5h7----||-0-0-1-2---|
E||--------2p0||--------2p0||--------2p0||---------0-|

4x
G||-------------|--------------|---------------------------||
D||--------2---1|----------2---|--------2---1--------------||
A||------4---4--|-----0h2h4---4|------4---4---5-0-4-0-3p2-0||
E||2-0-2--------|2-0-----------|2-0-2----------------------||

2x
G||-----------||-----------||-----------||-----------|
D||-----------||-----------||-----------||-----------|
A||7-7-5h7----||7-7-5h7----||7-7-5h7----||-0-0-1-2---|
E||--------2p0||--------2p0||--------2p0||--------0--|

G||-------------------------------------------------||
D||----------------------------------------------7h9||
A||----------3-x-x-3-2h3-3\---------6p5------7h9----||
E||0-2-2-0-2----------------5-x-5h6-----7-x---------||

G||-------------------------------------------||
D||-------------------------------------------||
A||----------3-x-x-3-2h3-3\---------6p5------3||
E||0-2-2-0-2----------------5-x-5h6-----7-x---||

and for the last part i think:


4x
G||-------------------------------------------||
D||-------------------------------------------||
A||6-6-6-6-6-6-6-6-6-6--6-6\12-12-12-12-------||
E||-------------------------------------------||
0

Giggstow 59 Mar 23, 2015 07:50 PM ---------------------------------------------

The other guys' corrections made this quite a good tab, so I'm going to round it up
with the last part (I'm pretty sure I figured it out):

D||-------2-4-5-2-2/4--||
A||2-1-----------------||
E||---3-2--------------||