You are on page 1of 2

Livin' On A Prayer

Bon Jovi

Tono:  G

Introdução: (Riff Principal) E5 C5 D5


O___oh, we're half way there
P.M . . . . G5 C5 D5
e|----------------------------------------------------|
Who___ah, living on a prayer
E5
B|----------------------------------------------------| C5
G|----------------------------------------------------|
Take my hand
D|----------------------------------------------------| D5
A|---7---5-------5------------------------------------|
We'll make it, I swear
G5 C5
E|-0---0---0-0-7--------------------------------------| D5
Who___ah, living on a prayer

(Once upon a time not so long ago)


(Riff Principal)
Primeira Parte:

Segunda Parte:
Tommy used to work on the docks
(Riff Principal)
Union's been on strike
C5 D5 Tommy got his six string in hock
Hes down on his luckm, it's tough
(Riff Principal) Now, he's holding in what he used
So tough
To make it talk so tough

Gina works the diner all day It's tough

Working for her man (Riff 1)


C5 D5
She brings home her pay for love H.A \
(Riff Principal) e|--------------20b22~---15---------------------------
For love B|--------------------------17~----12-----------------
G|-14b16r--14~~--------------------12-----------------
D|----------------------------------------------------
Primeira Ponte: A|----------------------------------------------------
E|----------------------------------------------------
C5 D5
She says: We've got to hold on
E5
To what we've got Gina dreams of running away
C5 D5
'Cause it doesn't make a difference When she cries in the night
E5
If we make it or not Tommy whispers: Baby, it's okay
C5 D5
We've got each other Someday
E5 C5
And that's a lot for love
D5 Segunda Ponte:
We'll give it a shot
C5 D5
We've got to hold on
C5 D5
'Cause it doesn't make a difference
E5 e|-----12-14-15---------------------------------------
If we make it or not B|---x-----------15-12-13--12-----15b17-15b17~~-------
C5 D5 G|-x--------------------------12----------------------
We've got each other D|----------------------------------------------------
E5 C5 A|----------------------------------------------------
And that's a lot for love E|----------------------------------------------------
D5
We'll give it a shot

e|-------------------14h15h17-17b19~------------------
Segundo Refrão: B|----------13h15h17----------------------------------
G|-12h14h16-------------------------------------------
E5 C5 D5 D|----------------------------------------------------
O___oh, we're half way there A|----------------------------------------------------
G5 C5 D5 E|----------------------------------------------------
Who___ah, living on a prayer
E5 C5
Take my hand
D5 Terceira Ponte:
We'll make it, I swear
G5 C5 D5 C5 D5
Who___ah, living on a prayer We've got to hold on
C5 E5
Living on a prayer Ready or not
C5
You live for the fight
Solo: E5 C5 D5 D5
G5 C5 D5 When that's all that you've got
E5 C5 D5
G5 C5 E5
Terceiro Refrão:
e|----------------------------------------------------|
G5 Eb5
B|----------------------------------------------------| F5
G|----------------------------------------------------|
O___oh, we're half way there
Bb5 Eb5 F5
D|-------------5--7--7b8r7----------------------------|
A|-7--5--7~-----------------5--5~~--------------------|
Who____ah, living on a prayer
G5
E|----------------------------------------------------| Eb5
Take my hand
F5
We'll make it, I swear
Bb5 Eb5 F5
e|-----12-14-15---------------------------------------
B|---x-----------15-12-13--15--15b17-15b17r15--15~\---|
Who____ah, living on a prayer
G|-x--------------------------------------------------|
G5 Eb5
D|----------------------------------------------------| F5
A|----------------------------------------------------|
O___oh, we're half way there
Bb5 Eb5 F5
E|----------------------------------------------------|
Who____ah, living on a prayer
G5 Eb5
Take my hand
e|---------------------------------------------------- F5
B|-x-x-12--x-x-13--x-x-12--x-x------------------------|
And we'll make it, I swear
Bb5 Eb5 F5
G|-x-x-12--x-x-14--x-x-12--x-x-11b12r11---------------|
D|--------------------------------------12------------|
Who____ah, living on a prayer
A|-----------------------------------------12---------|
G5 Eb5
E|----------------------------------------------------| F5
O___oh, we're half way there

Related Interests