You are on page 1of 2

e|---------------|---------------|----------------|----------------------|

b|---------------|---------------|----------------|----------------------|
G|---------------|---------------|----------------|----------------------|
D|---------5--5--|7--------5--5--|7---------3--3--|5---------------5--5--|
A|---------5--5--|7--------5--5--|7---------3--3--|5---------------5--5--|
E|---------3--3--|5--------3--3--|5---------1--1--|3---------------3--3--|

e|---------------|---------------|----------------|----------------------|
b|---------------|---------------|----------------|----------------------|
G|---------------|------------5--|4--2------------|----------------------|
D|7--------5--5--|7--------------|------5--3--5--2|----------------5--5--|
A|7--------5--5--|7--------------|----------------|----------------5--5--|
E|5--------3--3--|5--------------|----------------|----------------3--3--|

e|---------------|---------------|----------------|----------------------|
b|---------------|------3--5--6--|5---------------|----------------5--3--|
G|------------2--|4--5-----------|----------------|----------------------|
D|7--------------|---------------|----------3--3--|5---------------------|
A|7--------------|---------------|----------3--3--|5---------------------|
E|5--------------|---------------|----------1--1--|3---------------------|

e|---------------|---------------|----------------|----------------------|
b|---5--3h5p3----|---------------|----------------|----------------------|
G|5------------5-|-4-------------|-------------5--|4--2------------------|
D|---------------|---------5--5--|7---------------|------5--5>7--7-------|
A|---------------|---------5--5--|7---------------|----------------------|
E|---------------|---------3--3--|5---------------|----------------------|

e|---------------|---5--7--8-----|----------------|----------------5--4--|
b|---------------|------------8--|8>10--10--------|----------------------|
G|---------------|---------------|----------------|----------------------|
D|5--5--7--------|---------------|----------5--5--|7---------------------|
A|5--5--7--------|---------------|----------5--5--|7---------------------|
E|3--3--5--------|---------------|----------3--3--|5---------------------|

e|------5--4-----|---------------|----------------|----------------------|
b|6--5--------6--|5--------------|----------------|----------------------|
G|---------------|---7--5--4--2--|---2h4p2--------|----------------------|
D|---------------|---------------|5---------5--5--|5--5--5---------------|
A|---------------|---------------|----------------|5--5--7---------------|
E|---------------|---------------|----------------|3--3--5---------------|

e|---------------|---------------|----------------|----------------------|
b|---------------|---------------|----------------|----------------------|
G|---------------|---------------|----------------|----------------------|
D|3--2--0--------|3--2--0--2--0--|---0------------|----------------------|
A|---------------|---------------|3-----3--2--3--2|--0-------------------|
E|---------------|---------------|----------------|-----3--5-------------|

e|---------------|---------------|----------------|5-----5-----5--7-----7|
b|---------------|---------------|----------------|5-----5-----5--5-----5|
G|---------------|---------------|-----------2--2>|5--5-----5-----5--5---|
D|---------0--2--|3--2h3p2--0--2-|---------2------|----------------------|
A|0--2--3--------|---------------|-------0--------|----------------------|
E|---------------|---------------|----------------|----------------------|
e|---7--3-----3>5|--5--7--5H7P5--|3---------------|----------------------|
b|---5--3-----3>5|--5--5--5------|3---------------|----------------------|
G|5-----3-----3>5|--5--5--5------|3---------2--2--|4----2--3--3--0--0--2-|
D|---------------|---------------|----------3--3--|5----2--3--3--0--0--2-|
A|---------------|---------------|----------3--3--|5---------------------|
E|---------------|---------------|----------------|----------------------|

Riff 1:_______________________________________
e|---------------|---------3--3--|5---------3--3--|5---------------1--1--|
b|---------------|---------3--3--|5---------3--3--|5---------------1--1--|
G|-2-------4--4--|5--------4--4--|5---------4--4--|5---------------2--2--|
D|-2-------5--5--|7--------5--5--|7---------5--5--|7---------------3--3--|
A|---------5--5--|7--------5--5--|7---------5--5--|7---------------3--3--|
E|---------------|---------3--3--|5---------3--3--|5---------------1--1--|
G G Am G G Am F F

__________________________|
e|3--------3--3--|5----------|
b|3--------3--3--|5----------|
G|4--------4--4--|5----------|Continue strumming G, Am and F with some
D|5--------5--5--|7----------|arpeggios and some hammer-on and pull-off on the
A|5--------5--5--|7--------3-| last chords
E|3--------3--3--|5----------|
G G G Am

Bridge :
Strum the same G, Am and F chords with a different rythm (listen to song or video)

Then Riff 1 again, along with the Aaaaaaaaaah, Aaaaaaaaah, etc...

Finish on Am chord like this :

e|--5-----|
b|--5-----|
G|--5-----|
D|--7--7--|
A|--7--7--| let ring
E|--5--5--|
^
strum it
down to up

END

Thanks again to shima5 !!

************************************

> = slide
p = pull off
h = hammer on

************************************