You are on page 1of 3

あの花 - Ano Hana OP

青い栞 - Aoi Shiori by Galileo Galilei

Arrangement and tabs by Justin Ly


http://www.youtube.com/brokenleg343

CAPO 2nd FRET


STANDARD TUNING

/ = slide
h = hammer on
p = pull off

e|-3---------------------10----3----------------------10-------|
B|-3------------------8--8-----3-------------------8--8--------|
G|-0--2--0--2--0--2----7-------0---2--0--2--0—2-----7----------|
D|-0-0--0--0--0--0--0----------0-0--0--0--0--0--0--------------|
A|-2---------------------------2-------------------------------|
E|-3---------------------------3-------------------------------|

e|-3-------------0---------------------------------------------|
B|-3-1-0-1-3---3---3-----------0h1p0------0---------3-1-0-1—3-3|
G|-0-----0---0-----2-2-2---2/4------2-0-2-0-2-2-0---0-----0---0|
D|-0---------------0-------------------------------------------|
A|-2---------------------------0----------3--------------------|
E|-3------------------------------------------------3----------|

e|-0-------------------------------------------3-2-3------0-3-2|
B|--3---------0-0h1p0------0--------3-1-0-1-3-3--3----3-3------|
G|--2-2-2---2--------2-0-2-0-2-2-0--0-----0--0---2------2------|
D|--0--------------------------------------------0------2------|
A|--------------0----------3----------------------------0------|
E|----------------------------------3--------------------------|

e|-0----3-----------3------------------0-------3-5-2-3-5-3-2---|
B|--3-0-3-3-1-0p1-3-3------------------1-------------------0--3|
G|------------------0---0-2-2-4-5-4-0--2—0h2p0-------------2---|
D|------------------0---------0--------2-------3-----------0---|
A|------3------------------------------0-------------------2---|
E|------------------3------------------------------------------|
e|---0-2-3-2-0-3---------------------------0-2-3-2-0—0---------|
B|-3-0---------3-1-0h1-3-------3---3--3---3-------------3-3-1-0|
G|---0---------0-----------2h4---0-2-0--0-0-------------0------|
D|---2------------------------------------2--------------------|
A|---2---------3-------------------2------2-------------3------|
E|---0-------------------3----------------0--------------------|

e|-----------0-----------------0-3-5/7-----3-5-7--3-5-7--8-7-5-|
B|---1---3-----3-----3-3--3--3-----7/8-----3-7-8--3-7-8--8-8-7-|
G|-0---0---0-------0---2--2--2-------------0--0---0--0---------|
D|---------------------0--0--0---------------------------0--0-0|
A|-------------------------------------------------------------|
E|-------------------------------------------------------------|

e|-3—-3-5-7-3-5-7--8-7-5-3--2-2-----3-2-3----------------------|
B|-5—-5-7-8-5-7-8--8-8-7-5----0---3-0---2-3-1-0h1--0-----—-1--3|
G|-----------------0--0-0-0---2-----0---0------------0h2p0-----|
D|--0-------------------------0-----2---0----------------------|
A|----0--0--0--0--------------2-----2---3-----0------------3---|
E|----------------------------------0--------------------------|

e|-3-2-----2--3/5-2-3--3---------------------------------------|
B|---3---3-3-3---------3--3-3---0-3/5---3-3---3--3----1--1-----|
G|---2-----2-----------0--0-0-----2/4---2-2---0---0-0-----0-0--|
D|---0-----0-----------0----------0-------------0--0----0--0---|
A|--------------------------------------------3-------2--------|
E|---------------------3---------------------------------------|

e|------------2-------3----------------10--3---------------10--|
B|-0h1---1p0--3-------3-------------8---8--3-------------8--8--|
G|----0-----0-2---0-0-0--2-0-2-0-2---7-----0--2-0-2-0-2---7----|
D|-----0------0-------0-0-0-0-0-0-0--------0-0-0-0-0-0-0-------|
A|-0-----------------------------------------------------------|
E|--------------------3--------------------3-------------------|

e|-3---------2------3--3---------3-------3---------------------|
B|-3---------3------3--3---------3-------3---------------------|
G|-0--2-0-2--0--2-0-0--0--2-0-2--0--2-0--0---------------------|
D|-0-0-0-0-0-0-0-0-0---2-2-0-0-0-0-0-0-0-----------------------|
A|---------------------0---------3-----------------------------|
E|-3-----------------------------------------------------------|
e|-3---------2------3--3---------3-------3---3-----------------|
B|-3---------3------3--3---------3-------3---3-----------------|
G|-0--2-0-2--0--2-0-0--0--2-0-2--0--2-0--0---0-----------------|
D|-0-0-0-0-0-0-0-0-0---2-2-0-0-0-0-0-0-0-----0-----------------|
A|---------------------0---------3-----------------------------|
E|-3-----------------------------------------3-----------------|