You are on page 1of 2

Baby What You Want Me To Do

Elvis Presley
Composição: Jimmy Reed

Tom:  C

Baby, What You Want Me to Do

Intro:

E 2x A 2x

E||----------------------------------| E||----------------------------------|
B||----------------------------------| B||----------------------------------|
G||----------------------------------| G||----------------------------------|
D||----------------------------------| D||--10--10--12--12--13--13--12--12--|
A||--10--10--12--12--13--13--12--12--| A||--8---8---8---8---8---8---8---8---|
E||--8---8---8---8---8---8---8---8---| E||----------------------------------|

E 2x

E||----------------------------------|
B||----------------------------------|
G||----------------------------------|
D||----------------------------------|
A||--10--10--12--12--13--13--12--12--|
E||--8---8---8---8---8---8---8---8---|

B7 Riff 1 A7

E||--10--10--10--10--10--10--10--10--| E||------------11--11--11----------------------
B||--8---8---8---8---8---8---8---8---| B||------------10--10--10----------------------
G||--10--10--10--10--10--10--10--10--| G||------------10--10--10----------------------
D||--9---9---9---9---9---9---9---9---| D||------------10--10--10----------------------
A||--10--10--10--10--10--10--10--10--| A||--10--9--8--8---8---8-----------------------
E||----------------------------------| E||------------------------10/11--10/11--10/11-

Riff 2

E||---------------------------------------10--|
B||---------------------------------------8---|
G||---------------------------------------10--|
D||---------10----10---------10-----------9---|
A||--8h-10------------8h-10---------8--9--10--|
E||------------------------------8------------|
Riff 3

E||----------------------------------------8---|
B||----------------------------------------8---|
G||-------------8--------------------------9---|
D||------8--10-----10--8------8--10--------10--|
A||--10-------------------10---------8--9--10--|
E||----------------------------------------8---|

Intro
Riff 1
Riff 2

E*
We're goin' up, we're goin' down
E*
We're goin' up, down down up
E* A7
Any way you wanna let it roll
A7 E*
Yeah, yeah, yeah
B7
You got me doin' what you want me
A7 E Riff 3
Oh baby what you want me to do

You got me peepin' you got me hidin'


You got me peep hide hide peep
Any way you wanna let it roll
Yeah yeah yeah
You got me doin what you want me
Baby what you want me to do

Ending: Riff 3

E*

E||--8---8---------8---8---------|
B||--8---8---8--8--8---8---8--8--|
G||--9---9---8--8--9---9---8--8--|
D||--10--10--8--8--10--10--8--8--|
A||--10--10--8--8--10--10--8--8--|
E||--8---8---------8---8---------|