You are on page 1of 3

El Poder de Tu Mirada Key of A

Alta Consigna
E|--2-2-2--2--2--2--0h0--
B|--3-3-3--3--3--3--0h2--
G|-----------------------
D|-----------------------
A|-----------------------
E|-----------------------
E|--0-0-0--0--0--0-0---2-2-2--2--0--0----------
B|--2-2-2--2--0--0-0---3-3-3--3--2--0--0h2-0---
G|-------------------------------------------2-
D|---------------------------------------------
A|---------------------------------------------
E|---------------------------------------------

E|--------------------2-2---2---0---0----0----
B|--------------------3-3-3---2---0----2---2--
G|--2-2-2--2-2--2-2---------------------------
D|--------------------------------------------
A|--------------------------------------------
E|--------------------------------------------
E|-------------------------0--0--------
B|--2-2-2--2--2h3--2--0----3--3--0--3--
G|-------------------------------------
D|-------------------------------------
A|-------------------------------------
E|-------------------------------------
E|--------------------------0---0---0------------------
B|--------------------3-3-3---2---0--------------------
G|-4-4-4--4--4-2--2-------------------2----------------
D|-----------------------------------------4-2-0-------
A|-----------------------------------------------4-2-0-
E|-----------------------------------------------------

Intro Acordes:
A E7 C#7 F#m D E7 A
E7 D E7 A

A F#m
El Poder De Tu Mirada me hipnotiza,
D E7
Cuando me dices te quiero
A
Me alegras toda la vida,
D E7
Cuando te miro a mi lado,

Page 1

eres motivo. completita… A F#m Conozco ese punto débil de tu cuerpo. (Intro Acordes con el requinto) A F#m Me encanta ese punto débil de tu cuerpo.C#7 F#m Me parece una mentira. con ninguna A E7 Tú eres especial. C#7 F#m Estas en mi pensamiento. Page 2 . A E7 Para despertar. con tus besos… A E7 Como la lluvia que moja mi vida. C#7 F#m Me traes la felicidad. D E7 A todas horas del día. y continuar… A E7 No hay nadie como tú en esta vida. D E7 Y me enloqueces. C#7 F#m No creo que vaya a encontrar. D E7 Que seas mía. D E7 Tú eres la fuerza. D E7 No te comparas. D E7 Y si amarte es un pecado A Creo que yo no voy al cielo. A Tu belleza natural. D E7 Y si amarte es un pecado A Creo que yo no voy al cielo. para mi nomas… D Me toco la suerte E7 De que me hayas regalado.

con tus besos… A E7 Como la lluvia que moja mi vida. D E7 Y me enloqueces. para mi nomas… D Me toco la suerte E7 De que me hayas regalado. C#7 F#m Me traes la felicidad. y continuar… A E7 No hay nadie como tú en esta vida. eres motivo.D E7 A todas horas del día. A E7 Para despertar. D E7 Tú eres la fuerza. A E7 C#7 F#m D 5 5 1 1 4 6 6 2 2 5 7 7 3 3 6 8 8 4 4 7 9 9 5 5 8 3 2 1 1 3 2 4 1 3 2 4 1 3 1 1 1 2 1 4 Page 3 . D E7 No te comparas. C#7 F#m No creo que vaya a encontrar. C#7 F#m Estas en mi pensamiento. A Tu belleza natural. con ninguna A E7 Tú eres especial.

Related Interests