You are on page 1of 18

FANTASIE IMPROMPTU IN C# MINOR (OP.

66)
Frederic Chopin

This is a pretty difficult piece on the piano, let alone on the guitar, it's a cool
piece. enjoy!

Standard Tuning

Allegro agitato
Q=150
4/4
Gtr I
|----6----| |----6----|
W +W E E E E E E E E E E E E
|----------|------------|-------------------------|
|----------|------------|-------5-----------5-----|
|----------|------------|-----6---6-------6---6---|
|-6--------|-(6)--------|---6-------6---6-------6-|
|----------|------------|-4-----------4-----------|
|-4--------|-(4)--------|-------------------------|

|----6----| |----6----|
E E E E E E E E E E E E S S S S S S S S S S S S S S S S
|-------------------------|------------------------------------------------|
|-------5-----------5-----|------------------------------------------------|
|-----6---6-------6---6---|---------------------------------------------13-|
|---6-------6---6-------6-|------------------11-14-13-11-13-11----11-13----|
|-4-----------4-----------|---11-12-11----11-------------------15----------|
|-------------------------|------------15----------------------------------|

S S S S S S S S S S S S S S S S
|------------------------------------------------|
|------------------------------------------------|
|---------------------------------------------13-|
|------------------11-14-13-11-13-11----11-13----|
|---11-12-11----11-------------------15----------|
|------------15----------------------------------|

H=H
S S S S S S S S S S S S S S S S
|------------------------19-17-16-----------------|
|------------------14-16----------19-17-16-19-----|
|---------------16----------------------------18--|
|---------13-16-----------------------------------|
|---12-16-----------------------------------------|
|-------------------------------------------------|

Q=166
S S S S S S S S S S S S S S S S
|-------------------------------------------------|
|----16-------------------------------------------|
|-17----14S13----14-------------------------------|
|-------------16----14-13-16-------13-------------|
|----------------------------16-15----12----14-12-|
|----------------------------------------16-------|
+S S S S S S S S S S S S S S S S
|----------------------------------------------------|
|----------------------------------------------------|
|------------------------------------------------13--|
|---------------------11-14-13-11-13-11----11-14-----|
|-(12)-11-12-11----11-------------------15-----------|
|---------------15-----------------------------------|

H=H Q=174
S S S S S S S S S S S S S S S S
|------------------------------------------------|
|------------------------------------------------|
|---------------------------------------------13-|
|------------------11-14-13-11-13-11----11-14----|
|---11-13-11----11-------------------15----------|
|------------15----------------------------------|

S S S S S S S S S S S S S S S S
|----------------------------12--------------------|
|----------------12-------------16-14-12-----------|
|-------------------15-13-12-------------15-13-12--|
|-13-14-13-12-13-----------------------------------|
|--------------------------------------------------|
|--------------------------------------------------|

H.=H
S S S S S S S S S S S S S S S S
|-------------------------------------------------|
|-------12----------------------------------------|
|-15-13-------------13----------------------------|
|----------12-14-13-------11----13----------------|
|----------------------13----14----10-13-11-10-11-|
|-------------------------------------------------|

Q=163
S S S S S S S S S S S S S S S S
|-------------------------------------|
|----9---------7-------6-------7------|
|----------------5-6-----5-6-----5-6--|
|------10-11--------------------------|
|-11---------9-------8-------9--------|
|-------------------------------------|

S S S S S S S S S S S S S S S S S S S S S S S S S S S S S S S S
|-----------------------------------|-------------------------------------|
|-----------------------------9-----|----9---------7-------6-------7------|
|---6-------8-------9-------------9-|----------------5-6-----5-6-----5-6--|
|-------7-------7--------9------9---|------10-11--------------------------|
|-----9---6---9---7---11---11-------|-11---------9-------8-------9--------|
|-9---------------------------------|-------------------------------------|
S S S S S S S S S S S S S S S S S S S S S S S S S S S S S S S S
|-----------------------------------|-------------------------------------|
|---6-------7-------10--------9-----|----9---------7-------6-------7------|
|-------8-------8--------9--------9-|----------------5-6-----5-6-----5-6--|
|-----9-------9---7----9--------9---|------10-11--------------------------|
|-8-------9----------------11-------|-11---------9-------8-------9--------|
|-----------------------------------|-------------------------------------|

S S S S S S S S S S S S S S S S S S S S S S S S S S S S S S S S
|-----------------------------------|----------------------11----------9---5--|
|-----------------------------9-----|----9---------7-------------10------7----|
|---6-------8-------9-------------9-|----------------5-6-8----11--------------|
|-------7-------7--------9------9---|------10-11--------------------11--------|
|-----9---6---9---7---11---11-------|-11---------9----------------------------|
|-9---------------------------------|-----------------------------------------|

S S S S S S S S S S S S S S S S S S S S S S S S S S S S S S S S
|---9--------8--------8--------8-----|----8-------7-------7-------6------|
|-------7--------7--------7--------7-|--------7-------7-------7-------7--|
|-6---8--------8--------8--------8---|------8-------8-------8-------8----|
|---------10-------10-------10-------|-10-------9-------9-------8--------|
|------------------------------------|-----------------------------------|
|------------------------------------|-----------------------------------|

S S S S S S S S S S S S S S S S S S S S S S S S S S S S S S S S
|---6--------------------------------|---8-------7-------7-------6------|
|-------7---10---7---10---7---10---7-|-------7-------7-------7-------7--|
|-----8--------8--------8--------8---|-5---8-------8-------8-------8----|
|-8-------7--------7--------7--------|---------9-------9-------8--------|
|------------------------------------|----------------------------------|
|------------------------------------|----------------------------------|

S S S S S S S S S S S S S S S S
|---6--------------------------------|
|-------7---10---7---10---7---10---7-|
|-----8--------8--------8--------8---|
|-8-------7--------7--------7--------|
|------------------------------------|
|------------------------------------|

H=H Q=174
S S S S S S S S S S S S S S S S
|-------------------------------------------------|
|-------------------------------------------------|
|---------------------------------------------13--|
|------------------11-14-13-11-13-11----11-13-----|
|---11-12-11----11-------------------15-----------|
|------------15-----------------------------------|

S S S S S S S S S S S S S S S S
|------------------------------------------------|
|------------------------------------------------|
|---------------------------------------------13-|
|------------------11-14-13-11-13-11----11-13----|
|---11-12-11----11-------------------15----------|
|------------15----------------------------------|

S S S S S S S S S S S S S S S S
|------------------------19-17-16-----------------|
|---------------12-14-16----------19-17-16-19-----|
|---------------------------------------------18--|
|---------13-16-----------------------------------|
|---12-16-----------------------------------------|
|-------------------------------------------------|

S S S S S S S S S S S S S S S S
|-------------------------------------------------|
|----16-------------------------------------------|
|-17----14S13----14-------------------------------|
|-------------16----14-13-16-11----13-------------|
|-------------------------------15----12-11-14-12-|
|-------------------------------------------------|

+S S S S S S S S S S S S S S S S
|----------------------------------------------------|
|----------------------------------------------------|
|------------------------------------------------13--|
|---------------------11-14-13-11-13-11-10-11-14-----|
|-(12)-11-12-11-10-11--------------------------------|
|----------------------------------------------------|

S S S S S S S S S S S S S S S S
|-------------------------------------------------|
|----------------------10----------------------14-|
|-------------------11----11-10-11-10----10-13----|
|-14-13-14-13-12-13-------------------14----------|
|-------------------------------------------------|
|-------------------------------------------------|

S S S S S S S S S S S S S S S S
|-------------------------------------------------|
|---------------------10----------------------14--|
|------------------11----11-10-11-10----10-13-----|
|---11-12-11-10-11-------------------14-----------|
|-------------------------------------------------|
|-------------------------------------------------|

S S S S S S S S S S S S S S S S
|----------------------------------------------11-|
|-------------------10-14-10----10----------13----|
|-13-11-13-11-10-11----------13----13-12-13-------|
|-------------------------------------------------|
|-------------------------------------------------|
|-------------------------------------------------|
S S S S S S S S S S S S S S S S
|----------------12-11-----------------------------|
|----10----------------15-14-13-12-----------------|
|-13----13-12-13-------------------15-14-13-12-----|
|----------------------------------------------16--|
|--------------------------------------------------|
|--------------------------------------------------|

S S S S S S S S S S S S S S S S
|----------------12-11----------------------------|
|----------------------15-14-13-12----------------|
|----------------------------------15-14-13-12----|
|-14-16-14-13-14-------------------------------16-|
|-------------------------------------------------|
|-------------------------------------------------|

S S S S S S S S S S S S S S S S
|------16-15-14-13--------------------------------|
|------------------17-16-15-14--------------------|
|-13---------------------------17-16-15-14--------|
|------------------------------------------18-17--|
|-------------------------------------------------|
|-------------------------------------------------|

H.=H Q=150
S S S S S S S S S S S S S S S S E E S S S S S S S S S S S S
|-------0---------------------------|-----17-16-24----------21----------16-----|
|---------4-3-2-1-0-----------------|-----------------19-17-------16-14--------|
|-------------------3-2-1-0---------|--------------21----------18----------13--|
|-16-15---------------------4-2-1---|------------------------------------------|
|---------------------------------4-|------------------------------------------|
|-----------------------------------|-4----------------------------------------|

S S S S S S S S S S S S S S S S
|-------12----------------------------------------|
|-------------------14----------------------------|
|-14-13-------11----------------13----------------|
|----------14----14----11-13-11-------------14----|
|----------------------------------11-12-11-------|
|----------------------------------------------12-|

S S S S S S S S S S S S S S S S
|---------------------------------------|
|---------------------------------------|
|---------------------------------------|
|-------11-----------------6-------7----|
|-----------------11---6-4-----6-4------|
|-14-12----9-11-9----4-------4-------5--|

H.=H
4/4
S S S S S S S S S S S S S S S S
|---------------------------------||
|---------------------------------||
|---------------------------------||
|-----6-------5-------6-------6---||
|-6-4-----6-4-----6-4-----6-3-----||
|-------4-------3-------4-------4-||

Largo
Q=100 H.=H
|-3-| |-3-| |-3-| |-3-| |-3-| |-3-| |-3-| |-3-|
E E E E E E E E E E E E E E E E E E E E E E E E
|------------9-13-9----------|------------9-13-9----------|
|----------9--------9--------|----------9--------9--------|
|-----6s10------------10-6---|-----6s10------------10-6---|
|---6----------------------6-|---6----------------------6-|
|-4--------------------------|-4--------------------------|
|----------------------------|----------------------------|

Moderato cantabile
Q=95
|-3-|
H S S S E E E H H
|-------------------------|-------------4-----------|
|-----------------------4-|-6-----------------------|
|-1-----------3h5p3---6---|-----6---6-------1---1---|
|-----1---1---------6-----|---6---6---6---3---3---3-|
|---3---3---3-4-----------|-4-----------4-----------|
|-4-----------------------|-------------------------|
E E E E E E H E E E E E E E E E E E E
|-3-| |-3-| |-3-| |-3-| |-3-| |-3-|

Q Q Q E. S
|-------------------1---------|
|-7-----6-----4------------2--|
|-----------------------------|
|-4-----3-----1---------------|
|---6-----4-----3---4---------|
|-----4-----4-----4----4-1----|
E E E E E E E E E E E E
|-3-| |-3-| |-3-| |-3--|

|-3-|
H H H S S S E E E
|-------------------------|-----------------------1-|
|-------------------------|---------------------4---|
|-1-----------3-----------|-3-----------4h6p4-3-----|
|---1---1---1---4---4---4-|-----3---3---------------|
|-----3---3-------4---4---|---5---5---5-------------|
|-4-----------2-----------|-6-----------6-----------|
E E E E E E E E E E E E E E E E E E H
|-3-| |-3-| |-3-| |-3-| |-3-| |-3-|

H.=H
Q Q Q Q
|-2-----1-----------1-------|
|-------------4-------------|
|---------------------------|
|-1-4-----3-----1-----4-----|
|-----1-----0-----1-----3---|
|-------1-----2-----4-------|
E E E E E E E E E E E E
|-3-| |-3-| |-3-| |-3-|

Q=80
Q. T T T T Q. E
|------------------1--------------|
|-2--------1-2-4-2------2---2-4---|
|------1--------------0---0-----0-|
|----3-------------1--------------|
|-4------4------------------------|
|---------------------------------|
E E E Q E E E E E E
|-3--| |-3--| |--3--|

H=H Q=90
|-3-|
W H S S S E E E
|-------------------------|--------------------------|
|-4-----------------------|-----------------------4--|
|-------5-----------3-----|-1-----------3h5p3---6----|
|-----6---6-------4---4---|-----1---1---------6------|
|---6-------6---6-------6-|---3---3---3-4------------|
|-4-----------4-----------|-4------------------------|
E E E E E E E E E E E E E E E E E E H
|-3-| |-3-| |-3-| |-3-| |-3-| |-3-|

H H
|-------------4-----------|
|-6-----------------------|
|-----6---6-------1---1---|
|---6---6---6---3---3---3-|
|-4-----------4-----------|
|-------------------------|
E E E E E E E E E E E E
|-3-| |-3-| |-3-| |-3-|

Q Q E T T T T E. S H H
|-----------------------1--------|--------------------------|
|-7-----6-----4h6p4---4--------2-|--------------------------|
|-------------------6------------|-1-----------3------------|
|-4-----3------------------------|---1---1---1---4---4---4--|
|---6-----4---6---------4--------|-----3---3-------4---4----|
|-----4-----4--------------4-1---|-4-----------2------------|
E E E E E E Q E E E E E E E E E E E E E E E
|-3-| |-3-| |-3--| |-3-| |-3-| |-3-| |-3-|

|-3-|
H S S S E E E Q Q Q Q
|-----------------------1-|-2-----1-----------1-----|
|---------------------4---|-------------4-----------|
|-3-----------4h6p4-3-----|-------------------------|
|-----3---3---------------|-1-4-----3-----1-----4---|
|---5---5---5-------------|-----1-----0-----1-----3-|
|-6-----------6-----------|-------1-----2-----4-----|
E E E E E E H E E E E E E E E E E E E
|-3-| |-3-| |-3-| |-3-| |-3-| |-3-|

Q. T T T T Q. E
|------------------1---------------|
|-2---------------------1---1-4----|
|------1---0h1h3p1-----------------|
|----3----------------4---4-----4--|
|-4------4---------4---------------|
|----------------------------------|
E E E Q E E E E E E
|-3--| |-3--| |--3--|

H Q E E H E. S E. S
|-----------------------4---|-------------------------|
|-4-----------2-------------|-------------------------|
|-----5---5-------1---1-----|-1-----------3tr5-2-3--5-|
|---4---4---4---3---3-----3-|-----1---1---------------|
|-4-----------4-------------|---3---3---3-------------|
|---------------------------|-4-----------4-----------|
E E E E E E E E E E E E E E E E E E H
|-3-| |-3-| |-3-| |--3--| |-3-| |-3-|

|------7------|
E E Q +E E E E E E. S
|---------8--(8)p6p4--------4---|
|--------------------5----------|
|---------5------------6-3------|
|-6-----6-----------------------|
|---6---------4-----------------|
|-4-----------------------------|
E E E Q H
|--3--|

|-3-| |-3-|
H a E. S E. S Q Q Q E E E H S S S E E E
|-------------------------|-------------------------|-------------------------|
|-----------------------4-|-------------------2-1---|-----------------------4-|
|-------------5p3--2-3----|-1-----------3---------3-|-1-----------3h5p3---6---|
|-1-----------------------|-----1---1---------4-----|-----1---1---------6-----|
|-----3---3-----1----4----|---3---3---3---1-4-------|---3---3---3-4-----------|
|---4---4---4-------------|-4-----------2-----------|-4-----------------------|
E E E E E E Q Q E E E E E E E E E Q E E E E E E H
|-3-| |-3-| |-3-| |-3-| |-3-| |-3-| |-3-|

H H
|-------------4-----------|
|-6-----------------------|
|-----6---6-------1---1---|
|---6---6---6---3---3---3-|
|-4-----------4-----------|
|-------------------------|
E E E E E E E E E E E E
|-3-| |-3-| |-3-| |-3-|

Q Q E T T T T E. S H H
|-----------------------1--------|--------------------------|
|-7-----6-----4h6p4---4--------2-|--------------------------|
|-------------------6------------|-1-----------3------------|
|-4-----3------------------------|---1---1---1---4---4---4--|
|---6-----4---6---------4--------|-----3---3-------4---4----|
|-----4-----4--------------4-1---|-4-----------2------------|
E E E E E E Q E E E E E E E E E E E E E E E
|-3-| |-3-| |-3--| |-3-| |-3-| |-3-| |-3-|

H.=H
|-3-|
H S S S E E E Q Q Q Q
|-----------------------1-|-2-----1-----------1-----|
|---------------------4---|-------------4-----------|
|-3-----------4h6p4-3-----|-------------------------|
|-----3---3---------------|-1-4-----3-----1-----4---|
|---5---5---5-------------|-----1-----0-----1-----3-|
|-6-----------6-----------|-------1-----2-----4-----|
E E E E E E H E E E E E E E E E E E E
|-3-| |-3-| |-3-| |-3-| |-3-| |-3-|

Q=70
Q. T T T T Q. E
|------------------1---------------|
|-2---------------------1---1-4----|
|------1---0h1h3p1-----------------|
|----3----------------4---4-----4--|
|-4------4---------4---------------|
|----------------------------------|
E E E Q E E E E E E
|-3--| |-3--| |--3--|

H=H Q=90
H Q E E H E. S E. S
|-----------------------4---|-------------------------|
|-4-----------2-------------|-------------------------|
|-----5---5-------1---1-----|-1-----------3tr5-2-3--5-|
|---4---4---4---3---3-----3-|-----1---1---------------|
|-4-----------4-------------|---3---3---3-------------|
|---------------------------|-4-----------4-----------|
E E E E E E E E E E E E E E E E E E H
|-3-| |-3-| |-3-| |--3--| |-3-| |-3-|

|------7------|
E E Q +E E E E E E. S
|---------8--(8)p6p4--------4---|
|--------------------5----------|
|---------5------------6-3------|
|-6-----6-----------------------|
|---6---------4-----------------|
|-4-----------------------------|
E E E Q H
|--3--|

|-3-| |-3-|
H a E. S E. S Q Q Q E E E H S S S E E E
|-------------------------|-------------------------|-------------------------|
|-----------------------4-|-------------------2-1---|-----------------------4-|
|-------------5p3--2-3----|-1-----------3---------3-|-1-----------3h5p3---6---|
|-1-----------------------|-----1---1---------4-----|-----1---1---------6-----|
|-----3---3-----1----4----|---3---3---3---1-4-------|---3---3---3-4-----------|
|---4---4---4-------------|-4-----------2-----------|-4-----------------------|
E E E E E E Q Q E E E E E E E E E Q E E E E E E H
|-3-| |-3-| |-3-| |-3-| |-3-| |-3-| |-3-|

H H
|-------------4-----------|
|-6-----------------------|
|-----6---6-------1---1---|
|---6---6---6---3---3---3-|
|-4-----------4-----------|
|-------------------------|
E E E E E E E E E E E E
|-3-| |-3-| |-3-| |-3-|

|----6----|
Q Q S S S S S S E. S H H
|-------------------------1--------|-------------------------|
|-7-----6-----4-4h6p4---4--------2-|-------------------------|
|---------------------6------------|-1-----------3-----------|
|-4-----3--------------------------|---1---1---1---4---4---4-|
|---6-----4---6-----------4--------|-----3---3-------4---4---|
|-----4-----4----------------4-1---|-4-----------2-----------|
E E E E E E Q E E E E E E E E E E E E E E E
|-3-| |-3-| |-3--| |-3-| |-3-| |-3-| |-3-|

|-3-|
+H S S S E E E Q Q Q Q
|-------------------------1-|-2-----1-----------1-----|
|-----------------------4---|-------------4-----------|
|-(3)-----------4h6p4-3-----|-------------------------|
|-------3---3---------------|-1-4-----3-----1-----4---|
|-----5---5---5-------------|-----1-----0-----1-----3-|
|--6------------6-----------|-------1-----2-----4-----|
E E E E E E H E E E E E E E E E E E E
|-3--| |-3-| |-3-| |-3-| |-3-| |-3-|

H.=H
Q. T T T T Q. E
|------------------1---------------|
|-2---------------------1---1-4----|
|------1---0-1-3-1-----------------|
|----3----------------4---4-----4--|
|-4------4---------4---------------|
|----------------------------------|
E E E Q E E E E E E
|-3--| |-3--| |--3--|

Allegro agitato
Q=65 H=H Q=174
W S S S S S S S S S S S S S S S S
|-------------------------||------------------------------------------------|
|-4-----------------------||------------------------------------------------|
|-----5---5-------5---5---||---------------------------------------------13-|
|---4---4---4---4---4---4-||------------------11-14-13-11-13-11----11-13----|
|-4-----------4-----------||---11-12-11----11-------------------15----------|
|-------------------------||------------15----------------------------------|
E E E E E E E E E E E E
|-3-| |-3-| |-3-| |-3-|

S S S S S S S S S S S S S S S S
|------------------------------------------------|
|------------------------------------------------|
|---------------------------------------------13-|
|------------------11-14-13-11-13-11----11-13----|
|---11-12-11----11-------------------15----------|
|------------15----------------------------------|

S S S S S S S S S S S S S S S S
|------------------------19-17-16-----------------|
|------------------14-16----------19-17-16-19-----|
|---------------16----------------------------18--|
|---------13-16-----------------------------------|
|---12-16-----------------------------------------|
|-------------------------------------------------|

S S S S S S S S S S S S S S S S
|-------------------------------------------------|
|----16-------------------------------------------|
|-17----14S13----14-------------------------------|
|-------------16----14-13-16-------13-------------|
|----------------------------16-15----12----14-12-|
|----------------------------------------16-------|

+S S S S S S S S S S S S S S S S
|----------------------------------------------------|
|----------------------------------------------------|
|------------------------------------------------13--|
|---------------------11-14-13-11-13-11----11-14-----|
|-(12)-11-12-11----11-------------------15-----------|
|---------------15-----------------------------------|

S S S S S S S S S S S S S S S S
|------------------------------------------------|
|------------------------------------------------|
|---------------------------------------------13-|
|------------------11-14-13-11-13-11----11-14----|
|---11-13-11----11-------------------15----------|
|------------15----------------------------------|

S S S S S S S S S S S S S S S S
|----------------------------12--------------------|
|----------------12-------------16-14-12-----------|
|-------------------15-13-12-------------15-13-12--|
|-13-14-13-12-13-----------------------------------|
|--------------------------------------------------|
|--------------------------------------------------|

H.=H
S S S S S S S S S S S S S S S S
|-------------------------------------------------|
|-------12----------------------------------------|
|-15-13-------------13----------------------------|
|----------12-14-13-------11----13----------------|
|----------------------13----14----10-13-11-10-11-|
|-------------------------------------------------|

Q=165
S S S S S S S S S S S S S S S S
|-------------------------------------|
|----9---------7-------6-------7------|
|----------------5-6-----5-6-----5-6--|
|------10-11--------------------------|
|-11---------9-------8-------9--------|
|-------------------------------------|

S S S S S S S S S S S S S S S S S S S S S S S S S S S S S S S S
|-----------------------------------|-------------------------------------|
|-----------------------------9-----|----9---------7-------6-------7------|
|---6-------8-------9-------------9-|----------------5-6-----5-6-----5-6--|
|-------7-------7--------9------9---|------10-11--------------------------|
|-----9---6---9---7---11---11-------|-11---------9-------8-------9--------|
|-9---------------------------------|-------------------------------------|

S S S S S S S S S S S S S S S S S S S S S S S S S S S S S S S S
|-----------------------------------|-------------------------------------|
|---6-------7-------10--------9-----|----9---------7-------6-------7------|
|-------8-------8--------9--------9-|----------------5-6-----5-6-----5-6--|
|-----9-------9---7----9--------9---|------10-11--------------------------|
|-8-------9----------------11-------|-11---------9-------8-------9--------|
|-----------------------------------|-------------------------------------|

S S S S S S S S S S S S S S S S S S S S S S S S S S S S S S S S
|-----------------------------------|----------------------11----------9---5--|
|-----------------------------9-----|----9---------7-------------10------7----|
|---6-------8-------9-------------9-|----------------5-6-8----11--------------|
|-------7-------7--------9------9---|------10-11--------------------11--------|
|-----9---6---9---7---11---11-------|-11---------9----------------------------|
|-9---------------------------------|-----------------------------------------|

S S S S S S S S S S S S S S S S S S S S S S S S S S S S S S S S
|---9--------8--------8--------8-----|----8-------7-------7-------6------|
|-------7--------7--------7--------7-|--------7-------7-------7-------7--|
|-6---8--------8--------8--------8---|------8-------8-------8-------8----|
|---------10-------10-------10-------|-10-------9-------9-------8--------|
|------------------------------------|-----------------------------------|
|------------------------------------|-----------------------------------|

S S S S S S S S S S S S S S S S S S S S S S S S S S S S S S S S
|---6--------------------------------|---8-------7-------7-------6------|
|-------7---10---7---10---7---10---7-|-------7-------7-------7-------7--|
|-----8--------8--------8--------8---|-5---8-------8-------8-------8----|
|-8-------7--------7--------7--------|---------9-------9-------8--------|
|------------------------------------|----------------------------------|
|------------------------------------|----------------------------------|

H.=H
S S S S S S S S S S S S S S S S
|---6--------------------------------|
|-------7---10---7---10---7---10---7-|
|-----8--------8--------8--------8---|
|-8-------7--------7--------7--------|
|------------------------------------|
|------------------------------------|

Q=150 H=H Q=174


S S S S S S S S S S S S S S S S
|-------------------------------------------------|
|-------------------------------------------------|
|---------------------------------------------13--|
|------------------11-14-13-11-13-11----11-13-----|
|---11-12-11----11-------------------15-----------|
|------------15-----------------------------------|

S S S S S S S S S S S S S S S S
|------------------------------------------------|
|------------------------------------------------|
|---------------------------------------------13-|
|------------------11-14-13-11-13-11----11-13----|
|---11-12-11----11-------------------15----------|
|------------15----------------------------------|

S S S S S S S S S S S S S S S S
|------------------------19-17-16-----------------|
|---------------12-14-16----------19-17-16-19-----|
|---------------------------------------------18--|
|---------13-16-----------------------------------|
|---12-16-----------------------------------------|
|-------------------------------------------------|
S S S S S S S S S S S S S S S S
|-------------------------------------------------|
|----16-------------------------------------------|
|-17----14S13----14-------------------------------|
|-------------16----14-13-16-11----13-------------|
|-------------------------------15----12-11-14-12-|
|-------------------------------------------------|

+S S S S S S S S S S S S S S S S
|----------------------------------------------------|
|----------------------------------------------------|
|------------------------------------------------13--|
|---------------------11-14-13-11-13-11-10-11-14-----|
|-(12)-11-12-11-10-11--------------------------------|
|----------------------------------------------------|

S S S S S S S S S S S S S S S S
|-------------------------------------------------|
|----------------------10----------------------14-|
|-------------------11----11-10-11-10----10-13----|
|-14-13-14-13-12-13-------------------14----------|
|-------------------------------------------------|
|-------------------------------------------------|

S S S S S S S S S S S S S S S S
|-------------------------------------------------|
|---------------------10----------------------14--|
|------------------11----11-10-11-10----10-13-----|
|---11-12-11-10-11-------------------14-----------|
|-------------------------------------------------|
|-------------------------------------------------|

S S S S S S S S S S S S S S S S
|----------------------------------------------11-|
|-------------------10-14-10----10----------13----|
|-13-11-13-11-10-11----------13----13-12-13-------|
|-------------------------------------------------|
|-------------------------------------------------|
|-------------------------------------------------|

S S S S S S S S S S S S S S S S
|----------------12-11-----------------------------|
|----10----------------15-14-13-12-----------------|
|-13----13-12-13-------------------15-14-13-12-----|
|----------------------------------------------16--|
|--------------------------------------------------|
|--------------------------------------------------|

S S S S S S S S S S S S S S S S
|----------------12-11----------------------------|
|----------------------15-14-13-12----------------|
|----------------------------------15-14-13-12----|
|-14-16-14-13-14-------------------------------16-|
|-------------------------------------------------|
|-------------------------------------------------|

S S S S S S S S S S S S S S S S
|------16-15-14-13--------------------------------|
|------------------17-16-15-14--------------------|
|-13---------------------------17-16-15-14--------|
|------------------------------------------18-17--|
|-------------------------------------------------|
|-------------------------------------------------|

H.=H Q=150
S S S S S S S S S S S S S S S S E E S S S S S S S S S S S S
|-------0---------------------------|-----17-16-24----------21----------16-----|
|---------4-3-2-1-0-----------------|-----------------19-17-------16-14--------|
|-------------------3-2-1-0---------|--------------21----------18----------13--|
|-16-15---------------------4-2-1---|------------------------------------------|
|---------------------------------4-|------------------------------------------|
|-----------------------------------|-4----------------------------------------|

S S S S S S S S S S S S S S S S
|-------12----------------------------------------|
|-------------------14----------------------------|
|-14-13-------11----------------13----------------|
|----------14----14----11-13-11-------------14----|
|----------------------------------11-12-11-------|
|----------------------------------------------12-|

S S S S S S S S S S S S S S S S
|---------------------------------------|
|---------------------------------------|
|---------------------------------------|
|-------11-----------------6-------7----|
|-----------------11---6-4-----6-4------|
|-14-12----9-11-9----4-------4-------5--|

H.=H Q=102 H=H Q=150


S S S S S S S S S S S S S S S S S S S S S S S S S S S S S S S S
|---------------------------------|----------------------------------|
|---------------------------------|-------------5-------5-------4----|
|---------------------------------|----------------------------------|
|-----6-------5-------6-------6---|-----6---7-6-----7-6-----7-6------|
|-6-4-----6-4-----6-4-----6-3-----|-6-4-----------7-------7-------6--|
|-------4-------3-------4-------4-|-------4--------------------------|

S S S S S S S S S S S S S S S S S S S S S S S S S S S S S S S S
|---------------------------------|----------------------------------|
|-----4---------------------------|-------------5-------5-------4----|
|-------------6-------4-----------|----------------------------------|
|-7-6-----7-6-----------------6---|-----6---7-6-----7-6-----7-6------|
|-------6-------4-7-6-----7-6-----|-6-4-----------7-------7-------6--|
|-----------------------7-------4-|-------4--------------------------|
S S S S S S S S S S S S S S S S S S S S S S S S S S S S S S S S
|---------------------------------|----------------------------------|
|-----4---------------------------|-------------5---------------5----|
|-------------6-------------------|---------------------6------------|
|-7-6-----7-6---------6-------6---|-----6---7-6-----4-------7-6------|
|-------6-------4-7-6-----7-6-----|-7-6-----------7---7---4-------7--|
|-----------------------4-------4-|-------4--------------------------|

S S S S S S S S S S S S S S S S S S S S S S S S S S S S S S S S
|---------------------------------|----------------------------------|
|-------------5---------------5---|----------------------------------|
|---------------------6-----------|-----6-------6-------6-------6----|
|-----6---7-6-----4-------7-6-----|-4-------7-6-----4-------7-6------|
|-6-4-----------7---7---4-------7-|---7---4-------4---7---4-------4--|
|-------4-------------------------|----------------------------------|

H.=H
S S S S S S S S S S S S S S S S S S S S S S S S S S S S S S S S
|---------------------------------|----------------------------------|
|---------------------------------|----------------------------------|
|-----6-------6-------6-------6---|----------------------------------|
|-4-------7-6-----4-------7-6-----|-----6-------6-------6-------6----|
|---7---4-------4---7---4-------4-|-6-4-----6-4-----6-4-----6-4------|
|---------------------------------|-------4-------4-------4-------4--|

Q=130
S S S S S S S S S S S S S S S S S S S S S S S S S S S S S S S S
|---------------------------------|----------------------------------|
|---------------------------------|----------------------------------|
|---------------------------------|----------------------------------|
|-----6-------6-------6-------6---|-----6-------6-------6-------6----|
|-6-4-----6-4-----6-4-----6-4-----|-6-4-----6-4-----6-4-----6-4------|
|-------4-------4-------4-------4-|-------4-------4-------4-------4--|

S S S S S S S S S S S S S S S S S S S S S S S S S S S S S S S S
|---------------------------------|----------------------------------|
|---------------------------------|----------------------------------|
|---------------------------------|----------------------------------|
|-----6-------6-------6-------6---|-----6-------6-------6-------6----|
|-6-4-----6-4-----6-4-----6-4-----|-6-4-----6-4-----6-4-----6-4------|
|-------4-------4-------4-------4-|-------4-------4-------4-------4--|

H.=H
S S S S S S S S S S S S S S S S S S S S S S S S S S S S S S S S
|---------------------------------|----------------------------------|
|---------------------------------|----------------------------------|
|---------------------------------|----------------------------------|
|-----6-------6-------6-------6---|-----6-------6-------6-------6----|
|-6-4-----6-4-----6-4-----6-4-----|-6-4-----6-4-----6-4-----6-4------|
|-------4-------4-------4-------4-|-------4-------4-------4-------4--|
S S S S S S S S S S S S S S S S
|---------------------------------|
|---------------------------------|
|---------------------------------|
|-----6-------6-------6-------6---|
|-6-4-----6-4-----6-4-----6-4-----|
|-------4-------4-------4-------4-|

Q=90 H.=H Q=70


S S S S S S S S S S S S S S S S W W
|---------------------------------|----------|-------*|
|---------------------------------|-4--------|-^2----*|
|-----1-------1-------1-------1---|-5--------|-^1----*|
|-1-------1-------1-------1-------|-4--------|-^3----*|
|---4-------4-------4-------4-----|-4--------|-^4----*|
|-------1-------1-------1-------1-|----------|-------*|

Duration Legend
---------------
W - whole; H - half; Q - quarter; E - 8th; S - 16th; T - 32nd; X - 64th; a -
acciaccatura
+ - note tied to previous; . - note dotted; .. - note double dotted
Uncapitalized letters represent notes that are staccato (1/2 duration)
Irregular groupings are notated above the duration line
Duration letters will always appear directly above the note/fret number it
represents the
duration for. Duration letters with no fret number below them represent rests.
Multi-
bar rests are notated in the form Wxn, where n is the number of bars to rest for.
Low
melody durations appear below the staff

Tablature Legend
----------------
h - hammer-on
p - pull-off
b - bend
pb - pre-bend
r - bend release (if no number after the r, then release immediately)
/\ - slide into or out of (from/to "nowhere")
s - legato slide
S - shift slide
- natural harmonic
[n] - artificial harmonic
n(n) - tapped harmonic
~ - vibrato
tr - trill
T - tap
TP - trem. picking
PM - palm muting
\n/ - tremolo bar dip; n = amount to dip
\n - tremolo bar down
n/ - tremolo bar up
/n\ - tremolo bar inverted dip
= - hold bend; also acts as connecting device for hammers/pulls
<> - volume swell (louder/softer)
x - on rhythm slash represents muted slash
o - on rhythm slash represents single note slash