You are on page 1of 8

Hibria

"Steel Lord on Wheels"


From the album "Defying the Rules" (2004)

Tuning: Eb Ab Db Gb Bb Eb
Tempo: 130 bpm

Intro
E S S S S S S S S S E E S +E S S S S S S S S S E E S
||-------------------------------|---------------------------------|
||o------------------------------|---------------------------------|
||--2--------5-----------4--5--2-|-(2)-------5-----/7-----5--5--2--|
||--2--------5-----------4--5--2-|-(2)-------5-----/7-----5--5--2--|
||o-0--3-2-0---0-0-3-2-0-------0-|-(0)-3-2-0---0-0----0-0-------0--|
||-------------------------------|---------------------------------|

+E S S S S S S S S S E E S +E S S S S S S S S S S S S S S
|-------------------------------|-----------------------------------||
|-------------------------------|----------------------------------o||
|-(2)-------5-----------4--5--2-|-(2)-------5-------------------2---||
|-(2)-------5-----------4--5--2-|-(2)-------5-------------------2---||
|-(0)-3-2-0---0-0-3-2-0-------0-|-(0)-3-2-0---0-0-------0-3-2-0-0--o||
|-------------------------------|-----------------0-2-3-------------||

Verse
+S S S S S S S S S S S S S S S S +S S S S S S S S S S S S S S S S
||------------------------------------|------------------------------------|
||o-----------------------------------|------------------------------------|
||--(2)-------------------------5---2-|-(2)-----------------------------2--|
||--(2)-------------------------5---2-|-(2)-----------------------------2--|
||o-(0)-0-0-0-0-0-0-0-0-0-0-0-0---0-0-|-(0)-0-0-0-0-0-0-0-2-3-2-0-2-0---0--|
||------------------------------------|-------------------------------3----|

+S S S S S S S S S S S S S S S S +E e E e E e E E
|-----------------------------------|--------------------------||
|-----------------------------------|-------------------------o||
|-(2)-------------------------------|--------5--5--------------||
|-(2)-----------------------------3-|-(3)-3--5--5--5--5--3--5--||
|-(0)-0-0-0-0-0-0-0-0-0-0-0-0-0-0-3-|-(3)-3--3--3--5--5--3--5-o||
|---------------------------------1-|-(1)-1--------3--3--1--3--||

Pre-Chorus
E S S S S S S S S S S S S S S E S S S S S S S S S S S S S S
|-------------------------------|-------------------------------|
|-------------------------------|-------------------------------|
|-------------------------------|-------------------------------|
|-4-----------------------------|-3-----------------------------|
|-4-----------------------3-2-0-|-3-----------------------------|
|-2-2-2-2-2-2-2-2-2-2-2-2-------|-1-1-1-1-1-1-1-1-1-1-1-1-1-1-1-|

E S S S S S S S S S S S S S S E S S S S S S S S S S S S E
|-------------------------------|-----------------------------|
|-------------------------------|-----------------------------|
|-2-----------------------------|-5---------------------------|
|-2-----------------------------|-5---------------------------|
|-0-0-0-0-0-0-0-0-0-0-0-0-0-0-0-|-3-3-3-3-3-3-3-5p0-7p0-5p3-0-|
|-------------------------------|-----------------------------|

E S S S S S S S S S S S S S S E S S S S S S S S S S S S S S
|-------------------------------|-------------------------------|
|-------------------------------|-------------------------------|
|-------------------------------|-------------------------------|
|-4-----------------------------|-3-----------------------------|
|-4-----------------------3-2-0-|-3-----------------------------|
|-2-2-2-2-2-2-2-2-2-2-2-2-------|-1-1-1-1-1-1-1-1-1-1-1-1-1-1-1-|

E. E. Q E Q H E. E. E
|---------------|--------------|
|---------------|--------------|
|-4--5--4--5-4--|--------------|
|-2--3--2--3-2--|-3------------|
|---------------|-3----3--2----|
|---------------|-1----------3-|

Chorus
E S S S S E. S S S S S S S E S S S S E. S S S S S S S
||-----------------------------|----------------------------|
||o----------------------------|----------------------------|
||--2---------2----------------|----------------------------|
||--2---------2----------------|-3---------3----------------|
||o-0-0-0-0-0-0--0-0-0-0-0-0-0-|-3---------3----------------|
||-----------------------------|-1-1-1-1-1-1--1-1-1-1-1-1-1-|

E S S S S E. S S S S S S S E. E. E E. E. E
|----------------------------|------------------||
|----------------------------|-----------------o||
|----------------------------|------------------||
|-5---------5----------------|-3--3--3----------||
|-5---------5----------------|-3--3--3-3--2----o||
|-3-3-3-3-3-3--3-3-3-3-3-3-3-|-1--1--1-------3--||

Solo
Gtr II
S S S S S S S S S S S S S S S S
|---------------------------------|
|---------------------------------|
|---------------------4-7-4-------|
|-----4-7-4-------4-7-------7-4-7-|
|---5-------5---5-----------------|
|-7-----------7-------------------|
|
| Gtr I
| E S S S S S S S S S S S S S S
|---------------------------------|
|---------------------------------|
|-4-------------------------------|
|-4-------------------------------|
|-2---2-2-2-2-2-2-2-2-2-2-2-2-2-2-|
|---------------------------------|

|----6----| |----6----| |----6----| |----6----|


S S S S S S S S S S S S S S S S S S S S S S S S
|-------------------------------------------------|
|-------------------------------------------------|
|-4-4-4-4-4-4-6-6-6-6-6-6-7-7-7-7-7-7-9-9-9-9-9-9-|
|-------------------------------------------------|
|-------------------------------------------------|
|-------------------------------------------------|
|
| S S S S S S S S S S S S S S S S
|-------------------------------------------------|
|-------------------------------------------------|
|-------------------------------------------------|
|-------------------------------------------------|
|-2--2--2--2--2--2--2--2--2--2--2--2--2--2--2--2--|
|-------------------------------------------------|

E. E. Q. S S S S
|-----------------------------------------------|
|-10--------10--------10----------------7h10h12-|
|--9b11------9b11------9b11---------------------|
|-----------------------------------------------|
|-----------------------------------------------|
|-----------------------------------------------|
|
| S S S S S S S S S S S S S S S S
|-----------------------------------------------|
|-----------------------------------------------|
|-----------------------------------------------|
|-----------------------------------------------|
|--2----2-2--2----2-2--2----2-2-2-2-2-2-2--2--2-|
|-----------------------------------------------|

|--------6--------| |-------6--------| |-------6-------|


S S S S S S S S S S S S S S S S S S Q
|-7h10h==12p10p7-----------------------------------------------------|
|------------------10-7h10h==12p10p7---------------------------------|
|--------------------------------------9-7h10h==12p9p7-----7~~~------|
|--------------------------------------------------------9-----------|
|--------------------------------------------------------------------|
|--------------------------------------------------------------------|
| Flick whammy bar to produce
gargling sound
| S S S S S S S S S S S S S S S S
|--------------------------------------------------------------------|
|--------------------------------------------------------------------|
|--------------------------------------------------------------------|
|--------------------------------------------------------------------|
|-2----2-----2---2----2----2-----2---2---2----2----2---2---2-2-2-2---|
|--------------------------------------------------------------------|

T T T
|---3---| |--------6--------| |--------6--------| |--------6--------|
E S S S S S S S S S S S S S S S S S S S S S
|---7-10---12-17p12p==10p7h10h==12-19p12p==10p7h10h==12-21p12p==10p7h10h==12-|
|----------------------------------------------------------------------------|
|----------------------------------------------------------------------------|
|----------------------------------------------------------------------------|
|----------------------------------------------------------------------------|
|----------------------------------------------------------------------------|
|
| E S S S S S S S S S S S S S S
|----------------------------------------------------------------------------|
|----------------------------------------------------------------------------|
|-4--------------------------------------------------------------------------|
|-4--------------------------------------------------------------------------|
|-2-2----2-----2----2----2----2-----2----2----2----2-----2----2----2----2----|
|----------------------------------------------------------------------------|

T T T T T T
|-------6--------| |--------6---------| |--------6---------| |--------6---------|
S S S S S S S S S S S S S S S S S S S S S S S S
|-22p17h19-21p17h==19-19p17h==19-21p17h==19-21p19p==17p14h19p==17-22p19p==17p14h19p==17-|
|---------------------------------------------------------------------------------------|
|---------------------------------------------------------------------------------------|
|---------------------------------------------------------------------------------------|
|---------------------------------------------------------------------------------------|
|---------------------------------------------------------------------------------------|
|
| E S S S S S S S S S S S S S S
|---------------------------------------------------------------------------------------|
|---------------------------------------------------------------------------------------|
|---------------------------------------------------------------------------------------|
|--5------------------------------------------------------------------------------------|
|--5------------------------------------------------------------------------------------|
|--3--------3----3-----3----3-----3----3-----3----3-----3----3-----3----3-----3----3----|

Q. H E S S S S S S S S S S S S Q
|-21----------21b22-------------------|-19-16--------------------------------|
|-------------------------------------|-------17-------17-12-----------------|
|-------------------------------------|----------16----------13----9---------|
|-------------------------------------|-------------18----------14---9-------|
|-------------------------------------|--------------------------------11-7--|
|-------------------------------------|--------------------------------------|
|
| E S S S S S S S S S S S S S S H H
|-------------------------------------|--------------------------0-----------|
|-------------------------------------|--------------------------0-----------|
|-------------------------------------|--------------------------1-----------|
|--7----------------------------------|--2-----------------------------------|
|--7----------------------------------|--2-----------------------------------|
|--5--5-5-5-5--5----5-5-5-5-5-5-5-5-5-|--0-----------------------------------|

S S S S S S S S S S S S S S S S
|-12-7-------7-12-7-19-15----------15-19-15-|
|------8---8--------------17----17----------|
|--------9-------------------16-------------|
|-------------------------------------------|
|-------------------------------------------|
|-------------------------------------------|
|
| E S S S S S S S S S S S S S S
|-------------------------------------------|
|-------------------------------------------|
|--9----------------------------------------|
|--9----------------------------------------|
|--7---7-7-7-7--7-7--7--7--7--7--7--7--7--7-|
|-------------------------------------------|

T T T T
|---3---| |---3---| |---3---| |---3---|
S S S S S S S S S S S S S S S S S S S S
|-15-12----------12-15-12-20p15p==12----------------------------------|
|-------13----13---------------------20p17p==13-----------------------|
|----------12-----------------------------------21p17p==12------------|
|----------------------------------------------------------22p17p==14-|
|---------------------------------------------------------------------|
|---------------------------------------------------------------------|
|
| E S S S S S S S S S S S S S S
|---------------------------------------------------------------------|
|---------------------------------------------------------------------|
|--5------------------------------------------------------------------|
|--5------------------------------------------------------------------|
|--3-----3--3--3--3--3--3--3----3-----3----3-----3----3-----3----3----|
|---------------------------------------------------------------------|

Q. Q Q E Q. H E
|-----------------------------------------|----------------------------------|
|-15------------15------------------------|-15----------15-------------------|
|-14b16---------14b16-------14-------12---|-14----------14-------------------|
|-----------------------------------------|----------------------------------|
|-----------------------------------------|----------------------------------|
|-----------------------------------------|----------------------------------|
|
| E S S S S S S S S S S S S S S E S S S S S S S S S S S S S S
|-----------------------------------------|----------------------------------|
|-----------------------------------------|----------------------------------|
|-----------------------------------------|--7-------------------------------|
|--5--------------------------------------|--7-------------------------------|
|--5--------------------------------------|--5--5-5-5-5--5-5-5-5-5-5-5-5-5-5-|
|--3----3-3-3-3--3----3-3-3--3-3-3-3--3-3-|----------------------------------|

S S S S S S S S S S S S S S S S S S S S S S S S S S S S S S S S
|-15-12----12-14h15p14-12-15-12----12-14h15p14-12-|-15-12-------------------------------------------|
|-------12----------------------12----------------|-------13----------------------------------------|
|-------------------------------------------------|----------12----12-14-11----------12-------------|
|-------------------------------------------------|-------------14----------12----14----14----------|
|-------------------------------------------------|----------------------------15----------15-12-15-|
|-------------------------------------------------|-------------------------------------------------|
|
| E S S S S S S S S S S S S S S E S S S S S S S S S S S S S S
|-------------------------------------------------|-------------------------------------------------|
|-------------------------------------------------|-------------------------------------------------|
|--9----------------------------------------------|--5----------------------------------------------|
|--9----------------------------------------------|--5----------------------------------------------|
|--7-----7--7--7--7--7--7--7--7--7--7--7--7--7--7-|--3-----3--3--3--3--3--3--3--3--3--3--3--3--3--3-|
|-------------------------------------------------|-------------------------------------------------|

T T T T T T T T
|---------6----------| |---------6---------| |---3---| |---3---| |---3---| |---3---|
S S S S T T T S S S T T T S S S S S S S S S S S S S S
|-------12-17-20-17-20-17---12-17-20-17-20-17---12-17h20p==17----------------------------------|
|----13-------------------------------------------------------17h20p==17-----------------------|
|-14---------------------------------------------------------------------17h21p==17------------|
|-----------------------------------------------------------------------------------19h22p==19-|
|----------------------------------------------------------------------------------------------|
|----------------------------------------------------------------------------------------------|
|
| E S S S S S S S S S S S S S S
|----------------------------------------------------------------------------------------------|
|----------------------------------------------------------------------------------------------|
|--2-------------------------------------------------------------------------------------------|
|--2-------------------------------------------------------------------------------------------|
|--0--------0-----0-------0-----0-----0-------0-----0----0-----0----0-----0----0-----0----0----|
|----------------------------------------------------------------------------------------------|

S S S S S S S S S S S S S S S S
|-14-10----10-12h14p12p10-16-12----12-14h16p14p12--|
|-------10----------------------12-----------------|
|--------------------------------------------------|
|--------------------------------------------------|
|--------------------------------------------------|
|--------------------------------------------------|
|
| H H
|--------------------------------------------------|
|--------------------------------------------------|
|--7-----------------------9-----------------------|
|--7-----------------------9-----------------------|
|--5-----------------------7-----------------------|
|--------------------------------------------------|

Bridge
S S S S S S S S S S S S S S S S S S S S S S S S S S S S S S S S
|---------------------------------|---------------------------------|
|---------------------------------|---------------------------------|
|---------------------------------|---------------------------------|
|---------------------------------|---------------------5-7-5-------|
|-----2-3-2-------2-3-2-------2-3-|-----3-5-3-------3-5-------7-5-3-|
|-1-3-------3-1-3-------3-1-3-----|-3-5-------5-3-5-----------------|
S S S S S S S S S S S S S S S S Q Q Q Q
|--------------------------8-12-8------|-10b12--10--8--7-|
|-----------------------10--------10---|-----------------|
|---------5-----------9--------------9-|-----------------|
|-------7---7------10------------------|-----------------|
|-----7-------7-12---------------------|-----------------|
|-5-8----------------------------------|-----------------|

S S S S S S S S S S S S S S S S S S S S S S S S S S S S S S S S
|-------------------------------------------------|-------------------------------------------------|
|-13-10----10-12h13p12p10-13-10----10-12h13p12p10-|-15-12----12-13h15p13p12-15-12----12-13h15p13p12-|
|-------10----------------------10----------------|-------12----------------------12----------------|
|-------------------------------------------------|-------------------------------------------------|
|-------------------------------------------------|-------------------------------------------------|
|-------------------------------------------------|-------------------------------------------------|

E S S S S E. S S S S S S S E S S S S E. S S S S S S S
||-----------------------------|----------------------------|
||o----------------------------|----------------------------|
||--2---------2----------------|-5---------5----------------|
||--2---------2----------------|-5---------5----------------|
||o-0-0-0-0-0-0--0-0-0-0-0-0-0-|---0-0-0-0----0-0-0-0-0-0-0-|
||-----------------------------|----------------------------|

E S S S S E. S S S S S S S Q Q Q Q
|----------------------------|------------------||
|----------------------------|-----------------o||
|-7---------7----------------|-10--10--12--12---||
|-7---------7----------------|-10--10--12--12---||
|---0-0-0-0----0-0-0-0-0-0-0-|--8---8--10--10--o||
|----------------------------|------------------||

Q. Q. Q Q. Q. Q Q E Q E Q Q. Q. Q
||---------------|--------------|---------------|--------------||
||o--------------|--------------|---------------|-------------o||
||--9------------|------5----4--|-7--7-9--9-11--|------7----6--||
||--9----2----2--|-5----5----5--|---------------|-7----7----7--||
||o-7----2----2--|-5------------|-5--5-7--7--9--|-7-----------o||
||-------0----0--|-3------------|---------------|-5------------||

T
S S S S S S S S S S S S S S S S S S S S S S S S S S S S S S S S
|-8-5-------------------5-8-5-----|-10-7-------7-10-7-15-7-10-7-------7-|
|-----6---------------6-------6---|------8---8------------------8---8---|
|-------5-----------5-----------5-|--------7----------------------7-----|
|---------7-------7---------------|-------------------------------------|
|-----------8-5-8-----------------|-------------------------------------|
|---------------------------------|-------------------------------------|

T
S S S S S S S S S S S S S S S S S S S S S S S S S S S S S S S S
|-13-8---------------------------8-13-8-------|-15-10----------10-15-10-19-10-15-10----------10-|
|------10---------------------10--------10----|-------12----12----------------------12----12----|
|---------10---------------10--------------10-|----------12----------------------------12-------|
|------------10---------10--------------------|-------------------------------------------------|
|---------------12-8-12-----------------------|-------------------------------------------------|
|---------------------------------------------|-------------------------------------------------|

T
S S S S S S S S S S S S S S S S S S S S S S S S S S S S S S S S
|-17-13----------------------------13-17-13-------|-19-15----------15-19-15-22-15-19-15----------15-|
|-------13----------------------13----------13----|-------15----15----------------------15----15----|
|----------14----------------14----------------14-|----------16----------------------------16-------|
|-------------15----------15----------------------|-------------------------------------------------|
|----------------15-12-15-------------------------|-------------------------------------------------|
|-------------------------------------------------|-------------------------------------------------|
T T
|--3--| |--3--| |--3--| |--3--| |--3--| |--3--| |--3--| |--3--|
S S S S S S S S S S S S S S S S S S S S S S S S
|-16-12----------12-16-12----19-16-12-16-12----------12-16-12----19-16-12-|
|-------12----12----------12----------------12----12----------12----------|
|----------13----------------------------------13-------------------------|
|-------------------------------------------------------------------------|
|-------------------------------------------------------------------------|
|-------------------------------------------------------------------------|

Q. E E. E. E Q E H E
|-17----19-19b21-19--17-|-19b21--19-19b21------|
|-----------------------|----------------------|
|-----------------------|----------------------|
|-----------------------|----------------------|
|-----------------------|----------------------|
|-----------------------|----------------------|

Repeat Chorus and Intro Riff


End with
H E. E. E W
|--------------|------*|
|--------------|------*|
|--------------|------*|
|-3----5--4----|------*|
|-3----3--2--5-|-5----*|
|-1----------3-|-7----*|

Duration Legend
---------------
W - whole; H - half; Q - quarter; E - 8th; S - 16th; T - 32nd; X - 64th; a - acciaccatura
+ - note tied to previous; . - note dotted; .. - note double dotted
Uncapitalized letters represent notes that are staccato (1/2 duration)
Irregular groupings are notated above the duration line
Duration letters will always appear directly above the note/fret number it represents the
duration for. Duration letters with no fret number below them represent rests. Multi-
bar rests are notated in the form Wxn, where n is the number of bars to rest for. Low
melody durations appear below the staff

Tablature Legend
----------------
h - hammer-on
p - pull-off
b - bend
pb - pre-bend
r - bend release (if no number after the r, then release immediately)
/\ - slide into or out of (from/to "nowhere")
s - legato slide
S - shift slide
- natural harmonic
[n] - artificial harmonic
n(n) - tapped harmonic
~ - vibrato
tr - trill
T - tap
TP - trem. picking
PM - palm muting
\n/ - tremolo bar dip; n = amount to dip
\n - tremolo bar down
n/ - tremolo bar up
/n\ - tremolo bar inverted dip
= - hold bend; also acts as connecting device for hammers/pulls
<> - volume swell (louder/softer)
x - on rhythm slash represents muted slash
o - on rhythm slash represents single note slash

Misc Legend
-----------
| - bar
|| - double bar
||o - repeat start
o|| - repeat end
*| - double bar (ending)
: - bar (freetime)
$ - Segno
& - Coda
Tempo markers - = BPM(8/16=s8/s16), where s8 = swing 8ths, s16 = swing 16ths