You are on page 1of 3

Bete Balanço

Cazuza
Composição: Cazuza / Roberto Frejat

Tom: G

(intro) E7 Am7 E7

(riffs na intro e quase toda a música menos no refrão,


mas sempre acompanhado das notas)
(fazer o acorde de B7 com pestana)

(riff 1)
E|----------------------------------|
B|----------------------------------|
G|----------------------------------|
D|--9x---6/7---------9x---6/7/6/7---| (2x)
A|--7x---4/5---------7x---4/5/4/5---|
E|----------------------------------|

(riff 2)
E|----------------------------------|
B|----------------------------------|
G|----------------------------------|
D|-------4/5--------------4/5/4/5---| (1x)
A|--7x---2/3---------7x---2/3/2/3---|
E|--5x---------------5x-------------|

Em
Pode seguir a tua estrela
O teu brinquedo de 'star'
Am
Fantasiando em segredo
Em
O ponto aonde quer chegar
O teu futuro é duvidoso
Eu vejo grana eu vejo dor
Am
No paraíso perigoso
Em
Que a palma da tua mão mostrou
Bm7
Quem vem com tudo não cansa
C Am Bm7
Bete balanço meu amor
C B7 Em
Me avise quando for a hora

Bm7 F#m7
Não ligue pra essas caras tristes
Bm7 Em
Fingindo que a gente não existe
Bm7 F#m7
Sentadas são tão engraçadas
Bm7 C (Em)
Donas de suas sa...las

Em
Pode seguir a tua estrela
O teu brinquedo de 'star'
Am
Fantasiando em segredo
Em
O ponto aonde quer chegar
O teu futuro é duvidoso
Eu vejo grana eu vejo dor
Am
No paraíso perigoso
Em
Que a palma da tua mão mostrou
Bm7
Quem vem com tudo não cansa
C Am Bm7
Bete balanço meu amor
C B7 Em
Me avise quando for a hora
Bm7
Quem tem um sonho não dança
C Am Bm7
Bete balanço, por favor
C B7 Em
Me avise quando for embora

A Am Am7 B B7 Bm7
1 1 1
1 2 3 2 3 2 2 3 4
3
2 3 4 4
C D E E7 Em F#m7
1 1 1
2 1 2 2 3 2 3 1 2 1 2 3 4
3 3 4

1
2 3