You are on page 1of 2

BAD LOVE

Eric Clapton

-- Transcribed by Bernardo Siu

I ftp'd the chords from nevada and filled the blank spaces. Enjoy!

Riff used for intro and (I think) part of the solo:

e|-------5--5/8------------------------------5--5/8----------------|
B|---------------8--------6--6/8--6------------------8--6--5-------|
G|-5--7-------------5h7----------------5--7-------------------7----|
D|-----------------------------------------------------------------|
A|-----------------------------------------------------------------|
E|-----------------------------------------------------------------|

Repeat this over and over for the solo:

e|------------------------------2-------|
B|------------------------------3-------|
G|------------------------------2-------|
D|------------------------------0-------|
A|-0h2h3--2--0---------------0----------|
E|--------------3------3--2-------------|

Bm E7 A
Oh What a feeling I get when I'm with you
Bm E7 A
You take my heart into everything you do
Bb C Am
And it makes me sad for the lonely people
Bb C Dm
I walked that road for so long
Bb C Am
Now I know that I'm one of the lucky people
Bb C Dm
Your love is making me strong

CHORUS

Bb C Am
I've had enough Bad love
Bb C G
I need something I can be proud of
Bb C Am Bb C G
I've had enough Bad love No more bad love

Bm E7 A
And now I see that my life has been so blue
Bm E7 A
With all the heartaches I had till I met you
Bb C Am
But I'm glad to say now That's all behind me
Bb C G
With you here by my side
Bb C Am
And there's no more memories to remind me
Bb C G
Your love will keep me alive
CHORUS

CHORUS

--

altra versi�
NTRO
E----------------------------------------------------------------------
B----------------------------------------------------------------------
G-------5---------------------5----------------------------------------
D-3/5-7---5--5-5-3-5-0--3/5-7---5--3/2---------------------------------
A--------------------------------------5/7-7/5-------------------------
E----------------------------------------------------------------------

cHORUS
E---------------------------------------------------------------------
B----------13-----------------------------13---------------------------
G-10/12-14----12--12-12-10-12-7--10/12-14----12--12-10-7---------------
D----------------------------------------------------------------------
A----------------------------------------------------------------------
E----------------------------------------------------------------------

^Repeat x2