You are on page 1of 15

Mago De Oz

Finisterra(TAB) calidad: 8.73 (95 opiniones)


mdoz0172
AUTOR: Txus
ALBUM: Finisterra
Enviado por Rom�n

....que gueva

INTRO

------------------------
------------------------
------------------------
--2----2----2----2------
--2----2----2----2------
--0----0----0----0------
oh finis, oh terra

RIFF 1 (X4)

-------------------------------------------------
-------------------------------------------------
--9-7-----------------7-----9-7------------------
------10-9-------9-10---10------10-9-9-9-9-7----7
-----------10-10-----------------------------10--
-------------------------------------------------

Viol�n (O:51)

-------------15-12-10-------10-------------------
-------10-12----------10-12----12-10-------------
--9-12-------------------------------12-9------9-
------------------------------------------9-12---
-------------------------------------------------
-------------------------------------------------

VERSO 1 (piano pasado a guitarra) X5

--------------------------------------0-2-3-5----
-5---5-----7---7-----5---5--------1-3------------
---4---4-4---4---4-4---2---2--2-4----------------
-------------------------------------------------
-------------------------------------------------
-------------------------------------------------
Ayer como la nieve en la mar
las cosas ya no parec�an igual,
la gente se olvid� de re�r
y al Sol le cuesta tanto salir ...
Hoy el buf�n no par� de llorar,
el mundo al fin ha aprendido a cantar,
las doce a las campanas despert�,
la esperanza, por cambio de negocio, cerr�.

--8xxx-7xx-5xx-0xx---8xxx-7xx--5-5-5-5--
--8xxx-7xx-5xx-0xx---8xxx-7xx--5-5-5-5--
--8xxx-7xx-5xx-0xx---8xxx-7xx--5-5-5-5--
--10xx-9xx-7xx-2xx---10xx-9xx--7-7-7-7--
--10xx-9xx-7xx-2xx---10xx-9xx--7-7-7-7--
--8xxx-7xx-5xx-0xx---8xxx-7xx--5-5-5-5--
Grita el silencio al sordo que
todo va mal, nada est� bien,
corre la estatua a evitar
que salpique el olvido,
que moje el agua del Mar.

teclado (1:48) X2

----0-0-0---0-2-3-2--0-2-3-2--0-2----
----0-0-0----------------------------
----0-0-0----------------------------
----2-2-2----------------------------
----2-2-2----------------------------
----0-0-0----------------------------

violin (1:54) X2

-12-10----------------10----12-10------------------
------13-12-----12-13----13-------13-12-12-10----10
-----------12-12------------------------------12---
---------------------------------------------------
---------------------------------------------------
---------------------------------------------------

parte pesada X2
(la 1a vez con palm muting)

----------------------------------------------------
----------------------------------------------------
-------9xx-------------------9xx--------------------
--7~---9xx--9xx--7xx--9xx----9xx--9xx--7-7-7-7------
--7~---7xx--9xx--7xx--9xx----7xx--9xx--7-7-7-7------
--5~--------7xx--5xx--7xx---------7xx--5-5-5-5------
Por fin te has decidido a venir.
He o�do tanto hablar de ti,
en mis sue�os te he visto llegar,
en tus ojos veo el mal.
Desde hace siglos gobernar has querido
en todas las almas, y pocas han cedido,
las m�s al Reino de Luz llegar�n,
las menos al Reino del Mar del Olvido.

-----------------------------------------------
-----------------------------------------------
-----------------------------------------------
--10--9--7---2------10--9--7xx-7xx-7xx---------
--10--9--7---2------10--9--7xx-7xx-7xx---------
--8---7--5---0------8---7--5xx-5xx-5xx---------
Si has aprendido la lecci�n,
si has observado como son
necesitan a un l�der obedecer,
hagamos una coalici�n.

(2:49) ahora con distorsi�n

----0-0-0---0-2-3-2--0-2-3-2--0-2----
----0-0-0----------------------------
----0-0-0----------------------------
----2-2-2----------------------------
----2-2-2----------------------------
----0-0-0----------------------------

con distorsi�n (3:03) X2

-------------------------------------------
-------------------------------------------
--9--9-----------------9-------------------
--9--9-----------------9-------------------
--7--7--7-10-9-7----7--7-------------------
-----------------10------------------------

Con distorsi�n (3:09)

-----------------------------------------------
--------12--------12-------10------------------
--12-14----12-14-----11-12----11-12------------
------------------------------------9-11-12-14-
------------------------------------7-9--10-12-
-----------------------------------------------

-----------------------------------------------
--------12--------12-------10------------------
--12-14----12-14-----11-12----11-12------------
------------------------------------9-11-12-14-
------------------------------------7-9--10-12-
-----------------------------------------------

-----------------------------------------------
--------12--------12-------10------------------
--12-14----12-14-----11-12----11-12------------
------------------------------------16-14-12-11
------------------------------------14-12-10-9-
-----------------------------------------------

*Parte de bajo

----------------------------------------------------
----------------------------------------------------
----------------------------------------------------
----------------------------------------------------
----------------------------------------------------
--0-0-2-2-3-3-5-7------0-0-2-2-3-3-5-7--------------

----------------------------------------------------
----------------------------------------------------
----------------------------------------------------
----------------------------------------------------
----------------------------------------------------
-0-0-2-2-3-3-5-5-7-7-5-5-3-3-2-2--------------------
En ellos he visto el miedo a la soledad,
miedo a la muerte, y el dolor al terminar de amar.

en esta parte con distorsi�n va la misma linea


de bajo en viol�n, pero en la 1a cuerda con este
acompa�amiento:
------------------------------------------------------
------------------------------------------------------
-9-99-9-99-9-99-9-99--7-77--5-55--4-44----------------
-9-99-9-99-9-99-9-99--7-77--5-55--4-44----------------
-7-77-7-77-7-77-7-77--5-55--3-33--2-22-3-2-5-3-7-5-9-7
------------------------------------------------------
hagamos un pacto, al libre albedr�o d�jalos
y yo les dar� progreso, armamento y civilizaci�n.

------------------------------------------------
------------------------------------------------
--------7xxx--------7xxx--------7xxx--9~--------
--5xxx--7xxx--5xxx--7xxx--5xxx--7xxx--9~-2-4-5--
--5xxx--5xxx--5xxx--5xxx--5xxx--5xxx--7~-2-4-5--
--3xxx--------3xxx--------3xxx-----------0-2-3--

-----------------------------------
-----------------------------------
--------7xxx--------7xxx--------7--
--5xxx--7xxx--5xxx--7xxx--5xxx--7--
--5xxx--5xxx--5xxx--5xxx--5xxx--5--
--3xxx--------3xxx--------3xxx-----
Repart�monos sus almas, el futuro es para m�.
Mientras T� utiliza tu Iglesia, adorm�cemelos,
consumo, televisi�n e inflaci�n,
un nuevo orden, globalizaci�n,
es mi regalo, y frente al ordenador
al otro lado os llevar� ...

---------------------------------
---------------------------------
---------------------------------
--2xxxxxx-2-2-2-2----------------
--2xxxxxx-2-2-2-2----------------
--0xxxxxx-0-0-0-0----------------
Oh Finis, oh Terra
Oh Finis, oh Terra

------------------------------------------
------------------------------------------
--9-7-9--9-10-9----9-7-9--9-7-------------
--9-7-9--9-10-9----9-7-9--9-7-9-----------
--7-5-7--7-8--7----7-5-7--7-5-9-----------
------------------------------7-----------
Oh Finis, oh Terra
Oh Finis, oh Terra

violin (4:50)

-12-10----------------10----12-10------------------
------13-12-----12-13----13-------13-12-12-10----10
-----------12-12------------------------------12---
---------------------------------------------------
---------------------------------------------------
---------------------------------------------------

-12-10----------------10----12-10------------------
------13-12-----12-13----13-------13-12-12-10----10
-----------12-12------------------------------12---
---------------------------------------------------
---------------------------------------------------
---------------------------------------------------

----------------------------------------------------
--10-10-12-13-12-12-12-10---10-10-12-10-----------10
-------------------------12------------12-12-9-12---
----------------------------------------------------
----------------------------------------------------
----------------------------------------------------

----------------------------------------------------
--10-10-12-13-12-12-12-10---10-10-12-10-----------10
-------------------------12------------12-12-9-12---
----------------------------------------------------
----------------------------------------------------
----------------------------------------------------

-10-10-12-13-12----------12-13-15-15-13-15-13-12-13-12-10
----------------13-13-13---------------------------------
---------------------------------------------------------
---------------------------------------------------------
---------------------------------------------------------
---------------------------------------------------------

-10-10-12-13-12----------12-13-15-15-13-15-13-12-13-12-10
----------------13-13-13---------------------------------
---------------------------------------------------------
---------------------------------------------------------
---------------------------------------------------------
---------------------------------------------------------

-12-10----------------10----12-10------------------
------13-12-----12-13----13-------13-12-12-10----10
-----------12-12------------------------------12---
---------------------------------------------------
---------------------------------------------------
---------------------------------------------------

-12-10----------------10----12-10------------------
------13-12-----12-13----13-------13-12-12-10----10
-----------12-12------------------------------12---
---------------------------------------------------
---------------------------------------------------
---------------------------------------------------

con distorsion (5:19) X2

-------------------------------------------
-------------------------------------------
--9--9-----------------9-------------------
--9--9-----------------9-------------------
--7--7--7-10-9-7----7--7-------------------
-----------------10------------------------

1er solo de guitarra (5:23)

-------------------------13-12--
-10-10-12-13-12-10----10--------
-------------------12-----------
--------------------------------
--------------------------------
--------------------------------

--------------------------------
-10-10-12-13-12-10----10--------
-------------------12----12-9---
--------------------------------
--------------------------------
--------------------------------

-------------------------15-13--13-15-13-15-13-12-10-12-13-12
-10-10-12-13-12-10----10-------------------------------------
-------------------12----------------------------------------
-------------------------------------------------------------
-------------------------------------------------------------
-------------------------------------------------------------

-------------------------13-12--
-10-10-12-13-12-10----10--------
-------------------12-----------
--------------------------------
--------------------------------
--------------------------------

--------------------------------
-10-10-12-13-12-10----10--------
-------------------12----12-9---
--------------------------------
--------------------------------
--------------------------------

-------------------------15-13--13-15-13-15-13-12-10-12-13-12
-10-10-12-13-12-10----10-------------------------------------
-------------------12----------------------------------------
-------------------------------------------------------------
-------------------------------------------------------------
-------------------------------------------------------------

-12-12-10----------10-------------12-12-10----------10---
----------13-12-13----13-12-10-------------13-12-13----13
-------------------------------12------------------------
---------------------------------------------------------
---------------------------------------------------------
---------------------------------------------------------

*solo r�pido de guitarra (5:58)


improvisen algo, porque no pienso sacarlo

solo lento de guitarra (este si) (6:33)

---------------------------------------------------
---------------------------------------------------
---------------------------------------------------
------------------5-6-5-6-5-3----------------------
--7-8-7-8-7-5-----------------6-5---7-8-7-8-7-5----
--------------8-7-------------------------------8-7
------------------------------------------------
------------------------------------------------
-------------------7----------------------------
--7--9-10-----9-10---10-9-10-9-7----7s9s7~------
----------10---------------------10-------------
------------------------------------------------

-----------------------------
---------10-8---------12-10--
--9h10p9-------9h10p9--------
-----------------------------
-----------------------------
-----------------------------

-------------12-10----10-12-10---------------------
--10-13-12-10------12-----------12-13-12-12----10--
--------------------------------------------12-----
---------------------------------------------------
---------------------------------------------------
---------------------------------------------------

----------------------------------------
----------------------------------------
--7s9s7----7s9-7-7----------------------
--------10-----------7-10-9-7----7~-----
------------------------------10--------
----------------------------------------

VERSO
(puro piano)

D�jame explicar,
deja de o�r, esc�chame,
parias del mundo, venid !
a la libertad !

C G
Ahora empieza tu camino,
C G
s�lo t� eres el se�or de ti,
C D
el progreso est� en tu esp�ritu
Am
y no en una ciudad.
C G
S�lo t� elige tu destino
C G
s�lo t� decide invertir
C D Am
en tu esp�ritu o en una central nuclear

VIOLIN (8:00)
lento

--------------------------------------10----------
----------10-12--13-12-10----------10----13-12-13-
-----9-12--------------------10-12----------------
--12----------------------12----------------------
--------------------------------------------------
--------------------------------------------------

-------------------------------10----
----------10-10-12-10-12-10-12-------
-----9-12----------------------------
--12---------------------------------
-------------------------------------
-------------------------------------

--12-14-15--17-19-17-15-12-15-----
----------------------------------
----------------------------------
----------------------------------
----------------------------------
----------------------------------

--15-12----------------15-17-14-----------
--------15-12----12-15----------15--------
--------------12-------------------14-11--
------------------------------------------
------------------------------------------
------------------------------------------

-----12-14--19--17-15-17---
--12-----------------------
---------------------------
---------------------------
---------------------------
---------------------------

--15-12----------------15-17-14--------------12-14-12~
--------15-12----12-15----------15--------12----------
--------------12-------------------14-11--------------
------------------------------------------------------
------------------------------------------------------
------------------------------------------------------

Am G
No creas en quien
G Am
desde una sotana s�lo ve
Am G
"negritos" a quien convertir,
G Am
en vez de aprender de ellos a vivir.

C G
Ahora empieza tu camino,
C G
s�lo t� eres el se�or de ti,
C D
el progreso est� en tu esp�ritu
Am
y no en una ciudad.
C G
S�lo t� elige tu destino
C G
s�lo t� decide invertir
C
en tu esp�ritu

No a las dictaduras,
no a la impunidad,
no al comercio injusto
que explota al menor de edad
S� a las autocracias,
s� a la libertad,
el tercer mundo va a estallar.

(X2)
-----------------------------------------
-----------------------------------------
-----------------------------------------
-7-7-7-7--5-5-5-5--3-3-3-3--2-2-2-2------
-7-7-7-7--5-5-5-5--3-3-3-3--2-2-2-2------
-5-5-5-5--3-3-3-3--1-1-1-1--0-0-0-0------
Juntemos las fuerzas
para resistir a Pinochet en Chile,
y en Chechenia a un tal Putin,
levantaos en Bosnia,
inmigrantes venid,
el tercer mundo ya est� aqu�.

Violin (9:47)
X4

----------12-12--12-10-12-13-12--
-------13------------------------
-12-14---------------------------
---------------------------------
---------------------------------
---------------------------------

--10----10-12-10--------10-13-12-
-----13-----------13-12----------
---------------------------------
---------------------------------
---------------------------------
---------------------------------

----------12-12--12-10-12-13-12--
-------13------------------------
-12-14---------------------------
---------------------------------
---------------------------------
---------------------------------

--10----10-12-10-----------------
-----13------------13-12-13-10---
---------------------------------
---------------------------------
---------------------------------
---------------------------------

luego (10:16)
X2
-17-17--17-19-17-15-15--15-17-15-13-13--13-15-13-12--12-13-15-
--------------------------------------------------------------
--------------------------------------------------------------
--------------------------------------------------------------
--------------------------------------------------------------
--------------------------------------------------------------

-17-17--17-19-17-15-15--15-17-15-13-13--13-15-13-12--
-----------------------------------------------------
-----------------------------------------------------
-----------------------------------------------------
-----------------------------------------------------
-----------------------------------------------------

luego (10:30)
X2

----------12-12--12-10-12-13-12--
-------13------------------------
-12-14---------------------------
---------------------------------
---------------------------------
---------------------------------

--10----10-12-10--------10-13-12-
-----13-----------13-12----------
---------------------------------
---------------------------------
---------------------------------
---------------------------------

----------12-12--12-10-12-13-12--
-------13------------------------
-12-14---------------------------
---------------------------------
---------------------------------
---------------------------------

--10----10-12-10-----------------
-----13------------13-12-13-10---
---------------------------------
---------------------------------
---------------------------------
---------------------------------

parte de guitarra (10:45)

------------------------------------------
------------------------------------------
-------------------------------9-7-5-4----
--7--5----3--2----7--5----3----9-7-5-4----
--7--5----3--2----7--5----3----7-5-3-2----
--5--3----1--0----5--3----1---------------

Parte de silencio (10:53)


bajo y piano
la guitarra entra al minuto [11:05]

repetidamente

----------------------
----------------------
----------------------
----------------------
--7-7-9-7-10-9-7-9----
----------------------

luego entra asi: (11:12)

----------------------
----------------------
----------------------
--9-9-11-9-12-11-9-11-
----------------------
----------------------

Entra distorsi�n con piano (11:18)

parte de guitarra con distorsi�n


X4

------------------------------
------------------------------
--9--9--------------9--9------
--9--9--------------9--9------
--7--7----7-10-9-5--7--7------
------------------------------

mientras el piano hace esto:


varias veces

----------12-15-14-----------
--12---12----------15----12--
----------------------14-----
-----------------------------
-----------------------------
-----------------------------

LA distorsion cambia (11:31)


sigue la misma linea de piano
X4

(la 1a vez es pausado)

-------------------------------
-------------------------------
--------------5---5-4----------
--7---7-2---2-5---5-4----------
--7---7-2---2-3---3-2----------
--5---5-0---0------------------

VERSO (11:58)
X2

-----------------------
-----------------------
------4----2----4------
--2---4----2----4------
--2---2----0----2------
--0--------------------
Buenos d�as boletines de informacion,
les habla su emisora "Radio tus cojones" :
Sorprendido un pol�tico incapaz de enga�ar
a un obispo no putero y pobre de verdad,

X2

------------------------
------------------------
--9----4----2----4------
--9----4----2----4------
--7----2----0----2------
------------------------
un documental ha sido l�der de audiencia,
Pepe a Marta ya no pega y la tiene en cuenta,
se llevan las gordas y la inteligencia.
Ojal� fuera verdad.

ULTIMO VERSO (12:23)

--------------------------------------------
--------------------------------------------
--5---4---2---------5---4---2xxxx-----------
--5---4---2---2-----5---4---2xxxx-----------
--3---2---0---2-----3---2---0xxxx-----------
--------------0-----------------------------
Han hallado en Compostela,
a los pies del Ap�stol
envuelto en una tela,
un misterioso cofre, y dentro un CD Rom
con una inscripci�n :

Acompa�amiento de frase

X4

--------------
--------------
--------5xxx--
--2xxx--5xxx--
--2xxx--3xxx--
--0xxx--------

al mismo tiempo
X4 (con palm muting)

----------------------------------------
----------------------------------------
----------9-----------------9-----------
------9-----9---9-------9------9---9----
--7-7---7-----7-------------------------
--------------------8-8---8------8------
"En Satania est�s
es el fin del camino !! ... ".
(12:49)

---------------------------------
---------------------------------
---------------------------------
--2xxxxxx-2-2-2-2----------------
--2xxxxxx-2-2-2-2----------------
--0xxxxxx-0-0-0-0----------------
Oh Finis, oh Terra
Oh Finis, oh Terra

------------------------------------------
------------------------------------------
--9-7-9--9-10-9----9-7-9--9-7-------------
--9-7-9--9-10-9----9-7-9--9-7-9-----------
--7-5-7--7-8--7----7-5-7--7-5-9-----------
------------------------------7-----------
Oh Finis, oh Terra
Oh Finis, oh Terra

RIFF de guitarra (13:14)


(con palm muting) X4

-------------------------------------
-------------------------------------
------9-----9--7-----7-----7---------
------9-----9--7-----7-----7---------
--7-7---7-7------5-5---5-5-----------
-------------------------------------

luego cambia (13:26)


X4

-------------------------------------
-------------------------------------
------11-----11--9-----9-----9-------
------11-----11--9-----9-----9-------
--9-9----9-9-------7-7---7-7---------
-------------------------------------

guitarra con eco (13:38)

-------------------
-------------------
-------------------
-------------------
-----7--8~~--------
--9----------------

luego
(13:43)

---------------------
---------------------
---------------------
--4xxxxxxxxxx----4---
--4xxxxxxxxxx----4---
--2xxxxxxxxxx----2---
parte de flauta
(14:00) durante el requinto

--13-------13-15-12--17-15-13-15-13-12----------
-----10-13-----------------------------15-13----
---------------------------------------------14-
------------------------------------------------
------------------------------------------------
------------------------------------------------

--13--13-13-12--12-10-------------
----------------------13-10-8s10--
----------------------------------
----------------------------------
----------------------------------
----------------------------------

-17--13-15-17-13-15--18-17-15-17-15-13-15-17-13-
------------------------------------------------
------------------------------------------------
------------------------------------------------
------------------------------------------------
------------------------------------------------

-17-13-15-17-13-15--15-13-12------
-----------------------------15---
----------------------------------
----------------------------------
----------------------------------
----------------------------------

Requinto de guitarra (14:25)

-------------------------------------
-------------8-----11-10-8-----------
--10------10---9-----------9h10p9-7--
-----7-10----------------------------
-------------------------------------
-------------------------------------

-------------8------12-10-8-------------
--10--8-10-8---10-----------10----8-10--
-------------------------------10-------
----------------------------------------
----------------------------------------
----------------------------------------

parte de flauta (14:34)

--17-15-13-13h15p13-12--10----8-9-10----------1013-12h13p12-10-8-10
---------------------------10--------10----10----------------------
----------------------------------------10-------------------------
-------------------------------------------------------------------
-------------------------------------------------------------------
-------------------------------------------------------------------

-----13----13----17----17---22---22--22-17-
--15----15----18----18----22---22----------
-------------------------------------------
-------------------------------------------
-------------------------------------------
-------------------------------------------

--15-17----17----17----17------------------
--------18----17----15-----18-17-15--------
------------------------------------14-----
-------------------------------------------
-------------------------------------------
-------------------------------------------

se desvanece con las olas

.................maldita cancion larga

espero les guste