You are on page 1of 2

Bajan – Pescado Rabioso

INTRO

e|-----0-------0-----|
B|-------0---2-------|
G|---------1---------|
D|-------------------|
A|-------------------|
E|-0-------------3b4-|

RIF 1

E|-------------------------------5----------
B|--------5---------5------------5----------
G|------6---------6----------6---6----------
D|----6---------6----------6-----7----------
A|--4---------6----------7-------5----------
E|------------------------------------------

E F#m
Tengo tiempo para saber

C#m D#dim B
si lo que sueño concluye en algo

E F#m
No te apures ya más loco

C#m D#dim B
porque es entonces cuando las horas

C#m G#m B C#m


bajan, el día es vidrio sin sol

G#m B Cdim C#m


Bajan, la noche te ocul-ta la voz

C A7 G#7 F#7
Y además vos que-rés Sol

C#m D#dim C#m - C#m/D# - C#m/E - Amaj7 (riff 1)


Despacio también podés hallar la luna

Viejo roble del camino,


tus hojas siempre se agitan algo
Nena, nena, que bien te ves
Cuando en tus ojos no importa si las horas
bajan, el día se sienta a morir
Bajan, la noche se nubla sin fin

Y además vos sos el Sol


Despacio también podes ser la luna.
SOLO

e|-------------------------------------------------|
B|-------------------------------------12-------12-|
G|-11b13-11b13~~-11b13r11--------11b13----11b13----|
D|------------------------9-11~~-------------------|
A|-------------------------------------------------|
E|-------------------------------------------------|

e|------------------------------------|
B|------------------------------------|
G|-11b13-11-9-11-11--9-11----9-11-----|
D|------------------------11-----11-9-|
A|------------------------------------|
E|------------------------------------|

e|----------------------------9--|
B|-------------------------------|
G|-------------9-9-11-9-11b13----|
D|------9-9-11-------------------|
A|-9-11--------------------------|
E|-------------------------------|

e|------14r12-12-11-9----9------------------|
B|--------------------12--------------------|
G|-------------------------11b13-11-9-11----|
D|---------------------------------------11-|
A|------------------------------------------|
E|------------------------------------------|

e|-------------12----14b16-14-12----12----------------------------|
B|-------12-14----12-------------15-------------------------------|
G|-11/13-------------------------------14b16-14-12-13----12b13----|
D|----------------------------------------------------14----------|
A|----------------------------------------------------------------|
E|----------------------------------------------------------------|

e|------------------------------------------------------------|
B|----12-14----12-14----12-14----12-14----12-14----12-14------|
G|-13-------13-------13-------13-------13-------13-------13~~-|
D|------------------------------------------------------------|
A|------------------------------------------------------------|
E|------------------------------------------------------------|

e|---------------------------------------------------------------------|
B|----12-14----12-14----12-14----12-14----12-14----12-14----12-14------|
G|-13-------13-------13-------13-------13-------13-------13-------13~~-|
D|---------------------------------------------------------------------|
A|---------------------------------------------------------------------|
E|---------------------------------------------------------------------|

e|------------------------------------------------------------------|
B|-----------------------9-----9------------------------------------|
G|-11b13~~r11-9-11b13~~--11b13-11b13-~-11b13-11-9-11----9-11-11-9---|
D|---------------------------------------------------11-------------|
A|------------------------------------------------------------------|
E|------------------------------------------------------------------|

e|--------------------------------------------|
B|-10b12-10b12-12-9-10-9-------------10-12b14-|
G|------------------------------9-11----------|
D|-------------------------9-11---------------|
A|--------------------------------------------|
E|--------------------------------------------|

Related Interests