You are on page 1of 2

Tuning: Drop C

Intro x2
|-------------------------------------------------------------------------|
|-------------------------------------------------------------------------|
|---5-5-5--------------5-5-5-------8----5-5-5-----------------------------|
|-0---------6-5-3-5--0---------5-7----0---------6-5-3-5-5-3-5-3-5b-5-3----|

|-------------------------------------------------------------------------|
|-------------------------------------------------------------------------|
|-------------------------------------------------------------------------|
|xxxxxxxxxxxxxxxxxxxxxxxxxxxxxxxxxxxxxxxxxxxxxxxxxxxxxxxxxxxxxxxxxxxxxxxxx|

Riff A x3
|-------------------------------------------------------------------------|
|-------------------------------------------------------------------------|
|-------5-5-3-5-5---------------------------------------------------------|
|xxxxxx-------------------------------------------------------------------|

Riff B x1
|-------------------------------------------------------------------------|
|-------------------------------------------------------------------------|
|-6-8-10-8-6--------------------------------------------------------------|
|-------------------------------------------------------------------------|

Riff A x2
|-------------------------------------------------------------------------|
|-------------------------------------------------------------------------|
|-------5-5-3-5-5---------------------------------------------------------|
|xxxxxx-------------------------------------------------------------------|

Riff B x1
|-------------------------------------------------------------------------|
|-------------------------------------------------------------------------|
|-6-8-10-8-6--------------------------------------------------------------|
|-------------------------------------------------------------------------|

Riff C x6
|-------------------------------------------------------------------------|
|-------------------3-3-5-3-----------------------------------------------|
|---5-5-5-3-3-3-3-5-------------------------------------------------------|
|-0-----------------------------------------------------------------------|

Riff D x8
|-------------------------------------------------------------------------|
|-------------------------------------------------------------------------|
|-3-5---------------------------------------------------------------------|
|-----3-0-0---------------------------------------------------------------|

Riff A x3
|-------------------------------------------------------------------------|
|-------------------------------------------------------------------------|
|-------5-5-3-5-5---------------------------------------------------------|
|xxxxxx-------------------------------------------------------------------|

Riff B x1
|-------------------------------------------------------------------------|
|-------------------------------------------------------------------------|
|-6-8-10-8-6--------------------------------------------------------------|
|-------------------------------------------------------------------------|

Riff A x2
|-------------------------------------------------------------------------|
|-------------------------------------------------------------------------|
|-------5-5-3-5-5---------------------------------------------------------|
|xxxxxx-------------------------------------------------------------------|

Riff B x1 (Keep repeating Riff A x2 and Riff B til solo is over)


|-------------------------------------------------------------------------|
|-------------------------------------------------------------------------|
|-6-8-10-8-6--------------------------------------------------------------|
|-------------------------------------------------------------------------|

Riff C x6
|-------------------------------------------------------------------------|
|-------------------3-3-5-3-----------------------------------------------|
|---5-5-5-3-3-3-3-5-------------------------------------------------------|
|-0-----------------------------------------------------------------------|

Riff D x16
|-------------------------------------------------------------------------|
|-------------------------------------------------------------------------|
|-3-5---------------------------------------------------------------------|
|-----3-0-0---------------------------------------------------------------|

Riff E x12
|-------------------------------------------------------------------------|
|-------------------------------------------------------------------------|
|-------------------------------------------------------------------------|
|-6-0-0-------------------------------------------------------------------|

Riff F x12
|-------------------------------------------------------------------------|
|-------------------------------------------------------------------------|
|-------------------------------------------------------------------------|
|-5-0-0-------------------------------------------------------------------|

Riff G x30
|-------------------------------------------------------------------------|
|-------------------------------------------------------------------------|
|-------------------------------------------------------------------------|
|-6-0-0-------------------------------------------------------------------|

Riff B x1
|-------------------------------------------------------------------------|
|-------------------------------------------------------------------------|
|-6-8-10-8-6--------------------------------------------------------------|
|-------------------------------------------------------------------------|

Riff H (Play til outro)


|-------------------------------------------------------------------------|
|-------------------------------------------------------------------------|
|-------------------------------------------------------------------------|
|-5-5-3-5-5---------------------------------------------------------------|

Outro x2
|-------------------------------------------------------------------------|
|-------------------------------------------------------------------------|
|----5-5-5--------------5-5-5------8-----5-5-5----------------------------|
|-0---------6-5-3-5--0---------5-7----0---------6-5-3-5-5-3-5-3-5b-5-3----|