You are on page 1of 3

TABLATURAS 2015

ADELE SET FIRE TO THE RAIN


Am C G
e|--0---------0-------0----------0--1--0---------------------------------|
B|-------1---------1--------1-------------3--3-----0-----3-----0---------|
G|----2----2----2--------0----0-----------------0-----0-----0------------|
D|-----------------------------------------------------------------------|
A|--0-----------------3--------------------------------------------------|
E|-------------------------------------------3---------------------------|

first time it's Dm (Gm), 2nd it's ends with a G (C) in the verse
Dm
e|--1----------1------------|
B|--------3----------3------|
G|-----2-----2----2-----2---|
D|--0-----------------------|
A|--------------------------|
E|--------------------------|

G
e|----------------------------|
B|--1-----1-----1--0----------|
G|-----0-----0--------2--0----|
D|----------------------------|
A|----------------------------|
E|--3-------------------------|

La bersuit vergarabat
Intro:

e//----------------------------------------------------------------------//
B//---------------------------------------------------------------------//
G//---------------------------------2--------------1------------------//
D//------------------------------3-----3------2-------2-------------// x 3
A//----0-----3---5h---7--------------------------------------------//
E//-------------------------------------------------------------------//

e//----------------------------------------------------------------------//
B//---------------------------------------------------------------------//
G//---------------------------------2--------------------------------//
D//------------------------------3-----3------2-----------------------//
A//----0-----3---5h---7--------------------------------------------//
E//-------------------------------------------------------------------//
Jaf maravillosa esta noche intro

e|--------------------------------------------------|
B|--------------------------------------------------|
G|------14b(14)-12-14*-----14b(14)-12---------------|
D|---12-----------------12------------14*-----------|
A|--------------------------------------------------|
E|--------------------------------------------------|

e|--------------------------------------------------|
B|--------------------------------------------------|
G|------14b(14)-12-14*-----------12*----------------|
A|---12----------------12-12-14---------------------|
D|--------------------------------------------------|
E|--------------------------------------------------|

Soda Stereo
Persiana Americana(TAB)
e|------------------------------------------------------9---------|]
B|-----------8--7---------------8--7----------8--7------7---------|]
G|--------7-------7----------7-------7-----7-------7----7---------|]
D|----10------------10----10-----------10------------9--9---------|]
A|----------------------------------------------------------------|]
E|----------------------------------------------------------------|]
e|----------------------------------------------------------------|]
B|-----------8--7---------------8--7----------8--7------7bb-------|]
G|--------7-------7----------7-------7-----7-------7----7bb-------|]
D|----10------------10----10-----------10------------9------------|]
A|----------------------------------------------------------------|]
E|----------------------------------------------------------------|]

Ricardo Arjona
Por que es tan cruel el amor

E----------------------------------------------
A----------------------------------------------
D----------------------------------------------
intro G----------------------------------------------
B--9-10-12-------------------------------------
E----------9-10h12--10-10-9-9-7-7/5-5h7/9------

E----------------------------------------------
A----------------------------------------------
D----------------------------------------------
G----------------------------------------------
B--9-10-12-------------------------------------
E----------9-10h12--10-10-9-9-7-7-5-5----------
Juanes fotografías intro

1. ---------|---------|-------------|-------------|-2-------|
2. -3-0-----|-3-------|-----------0-|-----0-----0-|---5-3-3-|
3. -----2-0-|---4-0-2-|---0-----0---|---0-----0---|---------|
4. ---------|---------|-2---0-4-----|-2-----0-----|---------|
5. ---------|---------|-------------|-------------|---------|
6. ---------|---------|-------------|-------------|---------|

Juanes mala gente


e---------------------------------------------/
b-2/3-0-0-2-3-0-2-3-2-0-----0-2--0-2----------/
g-----------------------3-3----3-----3--------/
d---------------------------------------------/
a---------------------------------------------/
E---------------------------------------------/

Related Interests