You are on page 1of 10

Piece: Prelude from Cello Suite no. 1!

Compsr: J.S. Bach!


!
###########################!
#### TABBED FOR GDAE ####!
###########################!
!
!
E|--------------------------------------------------------------------------------|!
A|-------2-0-2---2-----------2-0-2---2-----------3-2-3---3-----------3-2-3---3----|!
D|----0--------0---0------0--------0---0------2--------2---2------2--------2---2--|!
G|-0-------------------0-------------------0-------------------0------------------|!
!
E|--------------------------------------------------------------------------------|!
A|-------3-2-3---3-----------3-2-3---3-----------2-0-2---2-----------2-0-2---2----|!
D|----4--------4---4------4--------4---4------5--------5---5------5--------5---4--|!
G|-0-------------------0-------------------0-------------------0------------------|!
!
E|--------------------------------------------------------------------------------|!
A|-------2-0-2-----------------------------0---0---0----------0---0---0-----------|!
D|----2--------5-4-5-2-5-4-5---0---------5---5---5---5------5---5---5---5---------|!
G|-0-------------------------4---6-4-6------------------6-------------------------|!
!
E|--------------------------------------------------------------------------------|!
A|---0-5-4-5-0---0---0---0--------------------------------------------------------|!
D|-4-----------5---4---5---0-4-2-0--2-----5-4-5---5-----2-----5-4-5---5-----------|!
G|----------------------------------*--4--------4---4---*--4--------4---4---------|!
!
!
!
E|--------------------------------------------------------------------------------|!
A|------------------------5-4-2-0---------5-0-5---0-------0-----------------------|!
D|-2----0-2-0-------5-4-2---------5-4-2-0-------4---0-2-4---5-4-2-0---------------|!
G|-*--6-------6-4-2---------------------------------------------------------------|!
!
E|--------------------------------------------------------------------------------|!
A|-------------------2----------------------0-2-3-0---------0-2-3-0---------------|!
D|-6--0-3-2-3-0-6--0---0-3-2-3-0-6--0----2----------2-0---2---------4-2-----------|!
G|-------------------------------------5----------------5-------------------------|!
!
E|--------------------------------------------------------------------------------|!
A|---------0---0-----------0---0----------------0---------------------------------|!
D|-1-4-1-4---4---4-1-4-1-4---4---4--5-4-2-5-4-5---4-5-4-2-0-----------------------|!
G|----------------------------------------------------------5-4-2-0---------------|!
!
E|--------------------------------------------------------------------------------|!
A|--------------------------------------------------------------------------------|!
D|-4------------------4------------------------3-2-3---3-----------3-2-3---3------|!
G|-*--5--7-5-7-5-7-5--*--5--7-5-7-5-7-5--0--4--------4---4---0--4--------4---4----|!
!
E|--------------------------------------------------------------------------------|!
A|-----------------------------------------------3-2-3---3-----------3-2-3---3----|!
D|-------2-0-2---2-----------2-0-2---2--------4--------4---4------4--------4---4--|!
G|-0--5--------5---5---0--5--------5---5---0-------------------0------------------|!
!
E|--------------------------------------------------------------------------------|!
A|-------2-0-2--------------------------------------------------------------------|!
D|----0---------5--4-2-0---------4-2-0-*------2-4-5-2-4-5--*----2-4-5-2-4-5-------|!
G|-0---------------------5-4-2-0-*-*-*-6---2---------------6--2-------------------|!
!
!
E|--------------------------------------------------------------------------------|!
A|----------------------------------------------0-4---5---------------------------|!
D|-*----0-2-4-0-2-4--*----0-2-4-0-2-4--*----0-4-----------------------------------|!
G|-5--2--------------5--2--------------5--2---------------------------------------|!
!
***********************************************************************************!
***********************************************************************************!
!
E|--------------------------------------------------------------------------------|!
A|-----------------0-------------0-2-3--0-----0-2-3-5-6---5-4-5-5-3-2-3-3-0-------|!
D|---------0-2-4-5---4---0-2-4-5----------4-5-------------------------------4-2-0-|!
G|-2---4-5------------------------------------------------------------------------|!
!
E|--------------------------------------------------------------------------------|!
A|-----------------0-2-3-0-2---------------------------0-2---4---1-0-1-1-0---0-0--|!
D|-------0-----0-4-----------5-0-----------0-------0-5-----5---------------6------|!
G|-2-4-5-*---2-------------------5-4-0-2-4-*---0-4--------------------------------|!
!
!
!
E|--------------------------------------------------------------------------------|!
A|------------------------0-4-5-4--5-0-------0------------------------------------|!
D|-5-4-5-5-2----------2-5--------------4-2-4---0-4----0---------4-2-0-------------|!
G|-----------6-4--2-6-------------------------------2---6-4-2-0-*-*-*-------------|!
!
E|--------------------------------------------------------------------------------|!
A|-3--2--0----------3-2-0-----------2-0--------------0----------------------------|!
D|---------5-4-2-0--------5-4-2-0-------5-4-2-0--------5-4-2-0--------5-4-2-------|!
G|--------------------------------5-------------5--4-----------5-4--2-------------|!
!
!
!
!
E|--------------------------------------------------------------------------------|!
A|----0-----0---0---0---0---0---0---0---0---0---0---0---0---0---0---0---0---0---0-|!
D|-4-----0----2---4---5---2---4---0---5---2---4---0---5---2---4---0---2---4---5---|!
G|--------------------------------------------------------------------------------|!
!
E|--------------------------------------------------------------------------------|!
A|---0---0---0---0---0----0---0---0----0----0---0----0---0----0---0---0---0---0---|!
D|-7---9---0---7---9---10---0---9---10---12---9---10---9---10---7---9---7---9-----|!
G|--------------------------------------------------------------------------------|!
!
E|--------------------------------------------------------------------------------|!
A|---0---0---0---0---0---0---0---0---0---0---------------------0---1---2---3---4--|!
D|-5---7---5---7---4---5---4---5---2---4---0-2-3-0-4-0-5-0-6-0---0---0---0---0---0|!
G|--------------------------------------------------------------------------------|!
!
E|-----------------------3---------3---3---3---------3---3---3---------3---3---3--|!
A|-5---6---7---8---9---------2---2---2---2-----2---2---2---2-----0---0---0---0----|!
D|---0---0---0---0---0---------0-----------------0-----------------0--------------|!
G|--------------------------------------------------------------------------------|!
!
E|-------3---3---2--------2---2---2---------2---2----------------3----------------|!
A|-0---0---0---0----3---3---3---3-----3---3---3----3------------2-----------------|!
D|---0----------------0-----------------0----------------0-----0------------------|!
G|-------------------------------------------------------0------------------------|!
!
!
!
!
!
!
!
!
!
!
!
!
!
!
!
!
!
###########################!
#### TABBED FOR CGDA ####!
###########################!
A|-------2-0-2---2-----------2-0-2---2-----------3-2-3---3-----------3-2-3---3----|!
D|----0--------0---0------0--------0---0------2--------2---2------2--------2---2--|!
G|-0-------------------0-------------------0-------------------0------------------|!
C|--------------------------------------------------------------------------------|!
!
A|-------3-2-3---3-----------3-2-3---3-----------2-0-2---2-----------2-0-2---2----|!
D|----4--------4---4------4--------4---4------5--------5---5------5--------5---4--|!
G|-0-------------------0-------------------0-------------------0------------------|!
C|--------------------------------------------------------------------------------|!
!
A|-------2-0-2-----------------------------0---0---0----------0---0---0-----------|!
D|----2--------5-4-5-2-5-4-5---0---------5---5---5---5------5---5---5---5---------|!
G|-0-------------------------4---6-4-6------------------6-------------------------|!
C|--------------------------------------------------------------------------------|!
!
A|---0-5-4-5-0---0---0---0--------------------------------------------------------|!
D|-4-----------5---4---5---0-4-2-0--------5-4-5---5-----------5-4-5---5-----------|!
G|-------------------------------------4--------4---4------4--------4---4---------|!
C|----------------------------------4-------------------4-------------------------|!
!
A|------------------------5-4-2-0---------5-0-5---0-------0-----------------------|!
D|------0-2-0-------5-4-2---------5-4-2-0-------4---0-2-4---5-4-2-0---------------|!
G|----6-------6-4-2---------------------------------------------------------------|!
C|-4------------------------------------------------------------------------------|!
!
!
!
A|-------------------2----------------------0-2-3-0---------0-2-3-0---------------|!
D|-6--0-3-2-3-0-6--0---0-3-2-3-0-6--0----2----------2-0---2---------4-2-----------|!
G|-------------------------------------5----------------5-------------------------|!
C|--------------------------------------------------------------------------------|!
!
A|---------0---0-----------0---0----------------0---------------------------------|!
D|-1-4-1-4---4---4-1-4-1-4---4---4--5-4-2-5-4-5---4-5-4-2-0-----------------------|!
G|----------------------------------------------------------5-4-2-0---------------|!
C|--------------------------------------------------------------------------------|!
!
A|--------------------------------------------------------------------------------|!
D|-------0---0---0----------0---0---0----------3-2-3---3-----------3-2-3---3------|!
G|----5----5---5---5-----5----5---5---5--0--4--------4---4---0--4--------4---4----|!
C|-6------------------6-----------------------------------------------------------|!
!
A|-----------------------------------------------3-2-3---3-----------3-2-3---3----|!
D|-------2-0-2---2-----------2-0-2---2--------4--------4---4------4--------4---4--|!
G|-0--5--------5---5---0--5--------5---5---0-------------------0------------------|!
C|--------------------------------------------------------------------------------|!
!
A|-------2-0-2--------------------------------------------------------------------|!
D|----0---------5--4-2-0----------------------2-4-5-2-4-5-------2-4-5-2-4-5-------|!
G|-0---------------------5-4-2-0-----------2------------------2-------------------|!
C|-------------------------------6-4-2-1-------------------1----------------------|!
!
A|----------------------------------------------0-4---5---------------------------|!
D|------0-2-4-0-2-4-------0-2-4-0-2-4-------0-4-----------------------------------|!
G|----2-----------------2-----------------2---------------------------------------|!
C|-0-----------------0-----------------0------------------------------------------|!
!
***********************************************************************************!
***********************************************************************************!
A|-----------------0-------------0-2-3--0-----0-2-3-5-6---5-4-5-5-3-2-3-3-0-------|!
D|---------0-2-4-5---4---0-2-4-5----------4-5-------------------------------4-2-0-|!
G|-2---4-5------------------------------------------------------------------------|!
C|--------------------------------------------------------------------------------|!
!
A|-----------------0-2-3-0-2---------------------------0-2---4---1-0-1-1-0---0-0--|!
D|-------------0-4-----------5-0-------------------0-5-----5---------------6------|!
G|-2-4-5-----2-------------------5-4-0-2-4-----0-4--------------------------------|!
C|-------2---------------------------------2--------------------------------------|!
!
A|------------------------0-4-5-4--5-0-------0------------------------------------|!
D|-5-4-5-5-2----------2-5--------------4-2-4---0-4----0---------------------------|!
G|-----------6-4--2-6-------------------------------2---6-4-2-0-------------------|!
C|--------------------------------------------------------------6-4-2-------------|!
!
A|-3--2--0----------3-2-0-----------2-0--------------0----------------------------|!
D|---------5-4-2-0--------5-4-2-0-------5-4-2-0--------5-4-2-0--------5-4-2-------|!
G|--------------------------------5-------------5--4-----------5-4--2-------------|!
C|--------------------------------------------------------------------------------|!
!
A|----0-----0---0---0---0---0---0---0---0---0---0---0---0---0---0---0---0---0---0-|!
D|-4-----0----2---4---5---2---4---0---5---2---4---0---5---2---4---0---2---4---5---|!
G|--------------------------------------------------------------------------------|!
C|--------------------------------------------------------------------------------|!
!
A|---0---0---0---0---0----0---0---0----0----0---0----0---0----0---0---0---0---0---|!
D|-7---9---0---7---9---10---0---9---10---12---9---10---9---10---7---9---7---9-----|!
G|--------------------------------------------------------------------------------|!
C|--------------------------------------------------------------------------------|!
!
A|---0---0---0---0---0---0---0---0---0---0---------------------0---1---2---3---4--|!
D|-5---7---5---7---4---5---4---5---2---4---0-2-3-0-4-0-5-0-6-0---0---0---0---0---0|!
G|--------------------------------------------------------------------------------|!
C|--------------------------------------------------------------------------------|!
!
A|-5---6---7---8---9----10---------10---10---10---------10---10---10--------------|!
D|---0---0---0---0---0-------9---9----9----9------9---9----9----9-----------------|!
G|-----------------------------7--------------------7-----------------------------|!
C|--------------------------------------------------------------------------------|!
!
A|--------10---10---10---------10---10---9------------9----9----9-----------------|!
D|--7---7----7----7------7---7----7----7------10---10---10---10-------------------|!
G|----7--------------------7---------------------7--------------------------------|!
C|--------------------------------------------------------------------------------|!
!
!
A|---------9----9-----------------10----------------------------------------------|!
D|-10---10---10---10--------------9-----------------------------------------------|!
G|----7-----------------7--------7------------------------------------------------|!
C|----------------------7---------------------------------------------------------|!
!
!
THE POGUES AND OTHER MANDOLIN TABS!
!
http://theinternetlol.com/mandolin/