You are on page 1of 2

NADA ES IMPOSIBLE-MARCO BARRIENTOS

Tono: Ab Bb5 F5 Eb5 (D5-Eb5)


Intro: Yo sé que aquí conmigo estas
Bb5 F5 C5 Eb5 Ebadd9
Yo sé que Tu Eres Grande Dios
E|--------------------------|
B|-------11-------11---11---|
G|-10-10----10-10---10------| 2x Bb5 Fadd11 (no5)/Bb Eb5 D5-Eb5
D|--------------------------| E|----------------------------------------|
A|--------------------------| B|-----11------10-------------------------|
E|--------------------------| G|-----10------10------------8-------7-8--|
D|-----8-------8-------------8-------5-6--|
A|---------------------------6------------|
E|--------------------------| E|----------------------------------------|
B|-------10-------10---10---|
G|-10-10----10-10---10------| 2x Coro:
D|--------------------------|
A|--------------------------| Bb5 F5
E|--------------------------| Por Ti, todo lo puedo
G5 Eb5
Coro: Todo es posible, y la fuerza Tú me das
Bb5 F5 Nada es imposible
Por Ti, todo lo puedo Bb5 F5
G5 Eb5 Por Ti, los ojos se abren
Todo es posible, y la fuerza Tú me das G5 Eb5
Cadenas son rotas, y yo viviré por Fe
Nada es imposible Nada es imposible
Bb5 F5
Por Ti, los ojos se abren Intro:
G5 Eb5
Cadenas son rotas, y yo viviré por Fe E|--------------------------------|
B|--16-16-15-16-15---18-16-15-----|
Nada es imposible G|----------------15--------------|
D|--------------------------------|
Intro: A|--------------------------------|
E|--------------------------------|
E|--------------------------------|
B|--16-16-15-16-15---18-16-15-----| E|----------------------------------|
G|----------------15--------------| B|--15-----------15--------16-15----|
D|--------------------------------| G|-----17-17-17-----17-15--------15-|
A|--------------------------------| D|----------------------------------|
E|--------------------------------| A|----------------------------------|
E|----------------------------------|
E|----------------------------------|
B|--15-----------15--------16-15----| Verso:
G|-----17-17-17-----17-15--------15-|
D|----------------------------------| Bb5 C5 Eb5
A|----------------------------------| No viviré por lo que veo
E|----------------------------------| G5 F5 Eb5
No viviré por lo que siento
Verso: Bb5 F5 Eb5 (D5-Eb5)
Yo sé que aquí conmigo estas
Bb5 C5 Eb5 Bb5 F5 C5 Eb5 Ebadd9
No viviré por lo que veo Yo sé que Tu Eres Grande Dios
G5 F5 Eb5
No viviré por lo que siento

IGLESIA CRISTIANA EVANGELICA VIDA NUEVA MINISTERIO DE ALABANZA


NADA ES IMPOSIBLE-MARCO BARRIENTOS

Coro:

Bb5 F5
Por Ti, todo lo puedo
G5 Eb5
Todo es posible, y la fuerza Tú me das

Nada es imposible
Bb5 F5
Por Ti, los ojos se abren

G5 Eb5
Cadenas son rotas, y yo viviré por Fe
Bb
Nada es imposible

Ponte 4x:

Eb5 Bb5
Creo en Ti, creo en Ti
C5 Eb5
Creo en Ti, creo en Ti, Cristo

Coro:

Bb5 F5
Por Ti, todo lo puedo
G5 Eb5
Todo es posible, y la fuerza Tú me das

Nada es imposible
Bb5 F5
Por Ti, los ojos se abren
G5 Eb5
Cadenas son rotas, y yo viviré por Fe
Bb
Nada es imposible

Ponte:

Eb5 Bb5
Creo en Ti, creo en Ti
C5 Eb5
Creo en Ti, creo en Ti, Cristo.

IGLESIA CRISTIANA EVANGELICA VIDA NUEVA MINISTERIO DE ALABANZA