You are on page 1of 6

Song: The Closer I Get To You A F#

Artist: Franco Lying here next to you


Tabbed by: John Eric Solis A F#
Time just seems to fly
A F#
Tuning: Drop D Needing you more and more
A F#
Here's the chords: Let's give love a try

A F# D E G
E|------|-------|---0---|-------|--------| [Refrain]
B|------|-------|---3---|-------|--------| D E
G|--9---|---6---|---2---|---4---|---7----| Sweeter and sweeter love grows
D|--7---|---4---|---0---|---2---|---5----| D
A|--7---|---4---|---0---|---2---|---5----| And Heaven's there for those
D|--7---|---4---|---0---|---2---|---5----| E
Who fooled the tricks of time
D
[Intro] With the hearts of love they find
A F# E G
True love in a special way
E|------------------------------------------
| e|------------------------------- [Verse 3]
-------------| A F#
B|------------------------------------------ The closer I get to you
| B|------------------------------- A F#
-------------| The more you make me see
G|--9-9-9-9-9-9-9-9------6-6-6-6-7-7-6-6---- A F#
| G|--9-9-9-9-11-11-11-11-----6-6- By giving me all you've got
6-6-7-7-6-6---| A F#
D|--7-7-7-7-7-7-7-7------4-4-4-4-4-4-4-4---- Your love has captured me
| D|--7-7-7-7-7--7--7--7------4-4-
4-4-4-4-4-4---| [Refrain]
A|--7-7-7-7-7-7-7-7------4-4-4-4-4-4-4-4---- D E
| A|--7-7-7-7-7--7--7--7------4-4- Over and over again
4-4-4-4-4-4---| D
D|--7-7-7-7-7-7-7-7------4-4-4-4-4-4-4-4---- I tried to tell myself that we
|(x3) D|--7-7-7-7-7--7--7--7------4-4- E
4-4-4-4-4-4---| Could never be more than friends
And all the while inside
D E
[Verse 1] I knew it was real
A F# G
The closer I get to you The way you make me feel
A F#
The more you make me see [Coda]
A F# A F#
By giving me all you've got The closer I get to you
A F# A F#
Your love has captured me The closer I get to you
A F#
The closer I get to you
[Refrain] A F#
D E The closer I get...
Over and over again
D
I tried to tell myself that we
E ************************************
Could never be more than friends
And all the while inside | x dead note
D E
I knew it was real
G
The way you make me feel

[Verse 2]
Artist:Rivermaya
Song:214
Tabbed by:Oscar Ramos
Email:xbitz_3@yahoo.com

Tuning: EADBGe (Standard)

[Intro]

e|--------8-|----------10-|-10-10-15-17-15-14---|-15-14-15----15----15----15-|
B|------8---|-------10----|-12------------------|----------15----13----12----|
G|----9-----|----11-------|-12---------------15-|----------------------------|
D|-10-------|-12----------|---------------------|----------------------------|
A|----------|-------------|---------------------|----------------------------|
E|----------|-------------|---------------------|----------------------------|

e|-------------|-3-----3-|-------2-|-0-|-2-|
B|-12-10-12-10-|-----0---|-----3---|-1-|-3-|intro keyboard dapat yan
G|-------12-11-|---0-----|---2-----|-0-|-2-|pro try nyo kung gusto nyo lng
D|-------------|---------|-0-------|-2-|-0-|
A|-------------|-0-------|---------|-3-|---|
E|-------------|---------|---------|---|---|

e|---------|---------|--------------------|---------|---------|--------------------|
B|---------|---------|--------------------|---------|---------|--------------------|
G|---------|---------|--------------------|---------|---------|--------------------|
D|-----2---|-4s6 4-2-|-5-4-2h4p2---7-7s9--|-----2---|-4s6 4-2-|-5-4-2h4p2---7-7s9--|
A|---2---2-|---------|-3---------3-5-5s7--|---2---2-|---------|-3---------3-5-5s7--|
E|-0-------|---------|--------------------|-0-------|---------|--------------------|

e|---------------|
B|---------------|
G|---------------|
D|---6h7p6-2h4p2-|
A|---------------|
E|-0-------------|

[Verse 1]

E
Am I real?
Bm7 E
Do the words I speak before you make you feel
Bm7 A
That the love I have for you will see no ending
Am E
Well, if you look into my eyes, then you should know
Bm7 E
That you have nothing here to doubt, nothing to fear
Bm7 A
And you can lay your questions down, 'cause if you'll hold me
Am G
We can fade into the night and you'll know

[Chorus]

Em Bm7 C G
The world could die and everything may lie
Em D C D
Still you shouldn't cry
G Em Bm7 C G
Cause time may pass but longer than it'll last
Em D
I'll be by your side
[Intro]

[Verse 2]
(same as verse 1)

E
Take my hand
Bm7 E
And gently close your eyes so you could understand
Bm7 A
That there is no greater love tonight than what I've for you
Am E
Well, if you feel the same way for me then let to go
Bm7 E
We can journey into a garden no one knows
Bm7 A
Life is short, my darling, tell me that you love
Am G
So we can fade into the night and you'll know

[Chorus]

Em Bm7 C G
The world could die and everything may lie
Em D C D
Still you shouldn't cry
G Em Bm7 C G
Cause time may pass but longer than it'll last
Em D
I'll be by your side

[Instrumental]

e|--------------------|---------------|------------------10-12-10-12-10-15--|
B|--------------------|---------------|-8-10-8-10-8-10/12-------------------|
G|-/7-7h9p7-5-4h5p4---|---------------|-------------------------------------|
D|------------------5-|-5h7p5---------|-------------------------------------|
A|--------------------|-------7-10-10-|-------------------------------------|
E|--------------------|---------------|-------------------------------------|

e|-14/15-14-12-10/12-10-8-10-|-/10-b17b17-17-15-17-|-b17-19-17-15-|-/12-10------------|----------
--|
B|---------------------------|---------------------|--------------|--------12-10-b10-10----------
--|
G|---------------------------|---------------------|--------------|---------------------12-11-
12\--|
D|---------------------------|---------------------|--------------|------------------------------
--|
A|---------------------------|---------------------|--------------|---------------------------
10\--|
E|---------------------------|---------------------|--------------|------------------------------
--|

e|-/12------------19hp17p15-----------------------||
B|-----15------15-----------17-15-13p12h13p12-----||
G|-------16-14--------------------------------14--||
D|------------------------------------------------||
A|------------------------------------------------||
E|------------------------------------------------||

[Chorus]
(same as chorus)

The world could die and everything may lie


Still you shouldn't cry
Cause time may pass and everything won't last,
But I'll be by your side
Forever by your side, forever by your side
So you won't cry

[Out-Chorus Adlib]

e|-b17-b17r17-b17-17-15-17-|-b15-b17-17-15-17-b13-|-b13-------------------------12h15/17-b17-|
B|-------------------------|----------------------|--------------------12h13h15--------------|
G|-------------------------|----------------------|-----------11h12h14-----------------------|
D|-------------------------|----------------------|-----12h14--------------------------------|
A|-------------------------|----------------------|------------------------------------------|
E|-------------------------|----------------------|------------------------------------------|

e|-b17r17-b17-15-b17--||
B|--------------------||
G|--------------------||
D|--------------------||
A|--------------------||
E|--------------------||

[Outro]

e|---------|---------|--------------------|---------|---------|---------------------|
B|---------|---------|--------------------|---------|---------|---------------------|End at E
G|---------|---------|--------------------|---------|---------|---------------------|
D|-----2---|-4s6 4-2-|-5-4-2h4p2---7-7s9--|-----2---|-4s6 4-2-|-5-4-2---4s6-4-2-0-2-|
A|---2---2-|---------|-3---------3-5-5s7--|---2---2-|---------|-3-----3-------------|
E|-0-------|---------|--------------------|-0-------|---------|---------------------|

Chords:

E: Bm7: A: Am:
0 7 0 7 0 5 0 5
0 9 3 7 2 5 1 5
1 or 9 4 or 7 2 or 6 2 or 5
2 9 4 9 2 7 2 7
2 7 2 9 0 7 0 7
0 7 2 7 0 5 0 5

sa verse part lng yan yung sa chorus ganon p rin

************************************

| b bend
| / slide up
| \ slide down
| h hammer-on
| p pull-off
| ~ vibrato
| + harmonic
| x Mute note
Nadarang - Shanti Dope Capo 1 Kahit na sa puso mo man ay
Am G F G F F Em F G G
Hinandusay na natin ang kasya
https://www.youtube.com/watch?v=b0sZoX_p53I F
Dati pa 'ko pinagdamutan ng kapalaran
[Chorus] F
Am G Kaya 'di na bago sakin mawalan ng pag-asa
Andiyan ka na naman Em
F G Ala una ng umaga nanaman
Bat di ko maiwasang tumingin sayong liwanag
F F Tawagan mo na lang ulit ako
Nadarang nanaman sayong apoy F G
Em F G Kapag hindi na kayo magkasama
Bakit ba laging hinahayaan
Am G [Chorus]
Andiyan ka na naman Am G
F G Andiyan ka na naman
Ba't di ko maiwasang tumingin sayong liwanag F G
F F Bat di ko maiwasang tumingin sayong liwanag
Nadarang nanaman sayong apoy F F
Em F G Nadarang nanaman sayong apoy
Handang masaktan kung kinakailangan Em F G
Bakit ba laging hinahayaan
[Verse 1] Am G
Am Andiyan ka na naman
May lakad ka ba mamaya F G
G Ba't di ko maiwasang tumingin sayong liwanag
Puwede ka ba makasama sa pag gagala F F
F Nadarang nanaman sayong apoy
Kung sakaling di ka puwede Em F G
G Handang masaktan kung kinakailangan
Sabagay, meron din akong ginagawa
F [Verse 2]
Siguro nga napapaisip ka Am
F May lakad ka ba mamaya
Ba't ako nangangamusta G
Em Sana madaanan mo ko pagkatapos
Ilang araw ka na naroon sa F
F G Sabihin mo ngayon ako'y makaka-asang
Panaginip ko, nag-aalala lang ako baka san G
ka mapunta Dito ka dadalhin ng iyong sapatos
Am F
Pero mukhang ayos ka naman Kung ngayong gabi lang naman ay magiging
G dahilan
Kahit di na kita abalahin pa F
F Ay handang handa parin naman ako mamaos
Ilang ama namin pa ba ang dapat Em
G Makakaluwag ka man ay sa mas
Para patago kang mag-alala sakin (uh) F G
F Nakakaibang paraan kita tutulungan makaraos
Habang pinapantasya lamang nila Am
F Bakit ka nagparamdam
Ay maskara mo sa gabi At G
Siguro 'di na kayo nilanggam
Pitaka mo sa umaga F
Em Bat kaya 'di niya alam
Dun ikaw sa likod ng colorete G
F G Ang iyong halaga kung gaano ka kalinamnam
Pag 'di na ngangangahulugan F
Am Iwasan ko mang matakam ng di halata
Sa salitang paraiso para sakin F
G Ang hirap nang magpabaya
Bakit kaya kayamanan ko padin kinikilala Em
F Kapag tawag na ng laman ay nagbadya
Ang iyong pagtawa F G
Makipag langit lupa ng walang taya
Am G
Pagkasama ka, bitbit sa bibig
F G
Mga ingay na tayo lang dalawang nakadinig
F F
Nakatawang umidlip sa kama
Em F G
Pero ba't wala ka na pagsapit ng umaga?

[Chorus]
Am G
Andiyan ka na naman
F G
Bat di ko maiwasang tumingin sayong liwanag
F F
Nadarang nanaman sayong apoy
Em F G
Bakit ba laging hinahayaan
Am G
Andiyan ka na naman
F G
Ba't di ko maiwasang tumingin sayong liwanag
F F
Nadarang nanaman sayong apoy
Em F G
Handang masaktan kung kinakailangan