You are on page 1of 2

#----------------------------------PLEASE NOTE---------------------------------#

#This file is the author's own work and represents their interpretation of the #
#song. You may only use this file for private study, scholarship, or research. #
#------------------------------------------------------------------------------##
From: jon@zeus.med.utah.edu (Jonathan Byrd)
Subject: TAB: Manoir De Mes Reves (Reinhardt/Grappelli)

MANOIR DE MES REVES


by Django Reinhardt/Stephane Grappelli

tablature by Jonathan Byrd

3 4 1 2 3 4 1 2 3 4 1 2 3 4 1 2 3 4 1 2 3 4 1 2 3 4 1 2 3 4 1 2 3 4
e---x---5-----------x---x-----------x---5-----------x---x-------x---7--
B---7---5-----------7---5-----------7---5-----------7---5-------4---4--
G---6---4-----------6---4-----------6---4-----------6---5-------5---5--
D---5---4-----------5---4-----------5---4-----------5---5-------4---4--
A---0---5-----------x---5-----------0---5-----------x---0-------5---5--
E---x---x-----------6---x-----------x---x-----------6---x-------x---x--

1 2 3 4 1 2 3 4 1 2 3 4 1 2 3 4 1 2 3 4 1 2 3 4 1 2 3 4 1 2 3 4
e---10----------7---5-----------x---x---------------x-----------x--
B---10----------6---5-----------2---7---------------6-----------7--
G---9-----------6---4-----------4---7---------------6-----------6--
D---9-----------5---4-----------4---6---------------5-----------5--
A---10----------0---5-----------2---7---------------6-----------0--
E---x-----------x---x-----------x---0---------------x-----------x--

1 2 3 4 1 2 3 4 1 2 3 4 1 2 3 4 1 2 3 4 1 2 3 4 1 2 3 4 1 2 3 4
e---5-----------x---x-----------x---5-----------x---x-------x---7--
B---5-----------7---5-----------7---5-----------7---5-------4---4--
G---4-----------6---4-----------6---4-----------6---5-------5---5--
D---4-----------5---4-----------5---4-----------5---5-------4---4--
A---5-----------x---5-----------0---5-----------x---0-------5---5--
E---x-----------6---x-----------x---x-----------6---x-------x---x--

1 2 3 4 1 2 3 4 1 2 3 4 1 2 3 4 1 2 3 4 1 2 3 4 1 2 3 4 1 2
e---10----------12--x-9-6-----------x-------x-------x---3---x--
B---10----------10--7-7-6-----------6-------7-------5---3---5--
G---9-----------10--7-7-7-----------6-------6-------4---3---4-- (back to start)
D---9-----------9---6-6-6-----------5-------5-------4---2---4--
A---10----------10--7-7-7-----------6-------0-------5---x---5--
E---x-----------x---0-0-0-----------x-------x-------x---x---x--

A13 D6/9 A13/Bb bass


e--x- e--5- e--x-
B--7- B--5- B--7-
G--6- G--4- G--6-
D--5- D--4- D--5-
A--0- A--5- A--x-
E--x- E--x- E--6-

Am7 D7flat9
e--x- e--x-
B--5- B--4-
G--5- G--5-
D--5- D--4-
A--0- A--5-
E--x- E--x-

G6/9 A13sharp5 E9
e-10- e--5- e--x-
B-10- B--5- B--7-
G--9- G--4- G--7-
D--9- D--4- D--6-
A-10- A--5- A--7-
E--x- E--x- E--0-

Eb9 Gm6
e--x- e--3-
B--6- B--3-
G--6- G--3-
D--5- D--2-
A--6- A--x-
E--x- E--x-

--
jonathan byrd
jon@apollo.med.utah.edu