You are on page 1of 15

COMO AFINAR UNA GUITARRA

Mucha gente de la que empieza con la guitarra, llega a desanimarse a los pocos
días de empezar, por algo tan simple como no saber afinar la guitarra; no
consiguen que la guitarra suene bien y esto les lleva a no tener resultados.

.Método tradicional de afinar una guitarra

En caso de no tener afinador, ni ningun programa que te ayude, tendras que


afinar de oido (lo que deberia saber hacer todo buen guitarrista). En el siguiente
video se explica como conseguirlo:
Este método básico de afinar la guitarra consiste en afinar basandose en el sonido
de la cuerda anterior:
- La 6ª cuerda tocada en el 5º traste dará el mismo sonido que la 5ª cuerda al aire.
- La 5ª cuerda tocada en el 5º traste dará el mismo sonido que la 4ª cuerdaal aire.
- La 4ª cuerda tocada en el 5º traste dará el mismo sonido que la 3ª cuerda al aire.
- La 3ª cuerda tocada en el 4º traste dará el mismo sonido que la 2ª cuerda al aire.
- La 2ª cuerda tocada en el 5º traste dará el mismo sonido que la 1ª cuerda al aire.
- La 1ª cuerda tocada al aire dará el mismo sonido que la 6ª cuerda al aire
(octava).

OMO APRENDER LEER TABLATURAS DE GUITARRA


Las tablaturas para guitarra son como una partitura que muestra la posición de
los dedos en la guitarra, pero que no da datos de tonos ni duración de las notas.
Asi que para tocar una canción a traves de una tablatura, la debes haber
escuchado antes para conocer el ritmo y sonido de la guitarra.
Tambien te puede interesar:
Como afinar una guitarra
Tocar escalas de guitarra

En primer lugar, nos interesa saber el nombre de las partes que componen el
mastil de la guitarra:

TRASTES: En el mástil se encuentran los trastes, que son las divisiones en que
se divide.
CUERDAS: La guitarra tiene 6 cuerdas de distinto grosor, la más fina que esta
abajo, es la denominada 1ª cuerda, la siguiente es la 2ª, y así hasta la 6ª que es la
más gruesa.
Mastil de la guitarra
......---\
Mi 1ra. ||---------|----------|----------|----------|---------|-
Si 2da. ||---------|----------|----------|----------|---------|-
Sol 3ra.||---------|----------|----------|----------|---------|-
Re 4ta. ||---------|----------|----------|----------|---------|-
La 5ta. ||---------|----------|----------|----------|---------|-
Mi 6ta. ||---------|----------|----------|----------|---------|-
......___/1 Traste . 2 Traste . 3 Traste . 4 Traste . 5 Traste

La tablatura se compone de seis líneas horizontales que representan las seis


cuerdas de la guitarra, la línea de arriba es la 1ª cuerda y la última línea es la 6ª:
e------------------------------primera cuerda
B-----------------------------segunda cuerda
G-----------------------------tercera cuerda
D-----------------------------cuarta cuerda
A-----------------------------quinta cuerda
E-----------------------------sexta cuer
En estas líneas estaran unos números que muestran el traste que se tiene que
pulsar:
e----1-------------------------
B------------------------------
G-------3----------------------
D----------5-------------------
A------------------------------
E------------------------------
Esto quiere decir que debes comenzar el punteo de guitarra pulsando la cuerda
primera(e) en el traste 1, después sigue la cuerda tercera(G) en el traste 3,
después sigues la cuerda cuarta(D) en el traste 5.
Si encuentras un 0 en la tablatura te esta indicando que la cuerda hay que tocarla
sin pulsarla.

Cuando en la tablatura hay unos números sobre otros, los tienes que tocar al
mismo tiempo y cada uno en su traste. Esto se llamaria acorde y se define como:
dos o más notas sonando al mismo tiempo.
e--2---------------------------primera cuerda
B--3---------------------------segunda cuerda
G------------------------------tercera cuerda
D------------------------------cuarta cuerda
A------------------------------quinta cuerda
E------------------------------sexta cuerda
En la tablatura de arriba hay dos notas una encima de otra, sin dejar espacio. Esto
indica que hay que tocarlas a la vez. La primera cuerda de la guitarra pisada en el
traste 2 y la segunda cuerda pisada en el traste 3, presionas las dos cuerdas a la
vez en sus trastes correspondientes y las tocas al mismo tiempo.

Acordes para guitarra puestos en tablatura


Ahora os mostramos algunos acordes basicos de guitarra puestos en tablatura:
Visita tambien: Acordes de guitarra
|----------------------------------------------------------------------|
|--------------------------------------------------------------3-------|
|------9--------10--------------------2---3---4---5---6---7----2---8---|
|-2----9---3----10---4---5---6---7----2---3---4---5---6---7-ó--0---8---|
|-2-or-7---3-ó---8---4---5---6---7-ó--0---1---2---3---4---5--------6---|
|-0--------1---------2---3---4---5-------------------------------------|

|-0---1---3---0---2---3---1-|
|-0---1---3---1---3---4---3-|
|-0---1---3---2---4---5---2-|
|-2---3---0---2---4---5---0-|
|-2---3-------0-------------|
|-0---1---------------------|

En la sigiente página puedes ver algunos de los simbolos que aparecen en las
tablaturas indicando como hacer las diferentes tecnicas de guitarra: Simbolos en
tablaturas de guitarra

Guitarra
Explicacion de acordes Cejillos Leer partituras
Escrito por Francisco Barros

Explicación Acordes:
| = Cuerdas de la guitarra.
_ = Trastes, trastos, o espacios.
0 = Cuerda suelta, o al aire.
1,2,3,4 = Número del dedo que pulsa la cuerda(van en
orden correlativo del dedo indice al meñique).
E,E7,Gsus4 = Nombre del acorde.
1_1_1_1_1_1= cejillo
Si quieres aprender más rápido tienes que aprenderte las
notas
en inglés y español.
(La mayoría de cosas para guitarra están en inglés)
C = Do m = menor
D = Re b = bemol
E = Mi # = sostenido
F = Fa
G = Sol
A = La
B = Si
-------------------------------------------------------------
------
Cejillos
Los cejillos ( barre en inglés) es una forma de hacer los
acordes. Es muy fácil sólo tienes que ubicar el bajo de una
nota en tu guitarra y si ésta es en la 6ª cuerda, se toca un
Fa.
Un ejemplo con el "Do" :

Do
_ _ _ _ _
8 1_1_1_1_1_1
9 |_|_|_2_|_|
10 |_3_4_|_|_|
11 |_|_|_|_|_|
12 |_|_|_|_|_|
Ahora si el bajo ubicado esta en la 5ª cuerda, se hace el
mismo
procedimiento anterior, pero con un Si, o sea, con la figura
del
Si.
Do
_ _ _ _ _
2 |_|_|_|_|_|
3 |_1_1_1_1_1
4 |_|_|_|_|_|
5 |_|_2_3_4_|
6 |_|_|_|_|_|
...y esos son. se pueden hacer también en la 4ª cuerda, pero
no
es esa la idea ,ya que los cejillos se usan más para notas
graves,
o para darle más poder al acorde. También se usan para tocar
con
distorsión, pero en esos casos generalmente se usan las 3
ultimas
cuerdas del cejillo.
IMPORTANRTE: Si el acorde que quieres hacer es menor,
Mayor, séptima, sus4, tienes que hacerlo con el Fa o Si que
corresponde: Si el acorde es un Do7sus4, tienes que hacerlo
con la
figura del Fa7sus4, o la del Si7sus4.
-------------------------------------------------------------
------
Leer Partituras
Leer partituras es muy fácil( me parece haber dicho esto
antes) lo
único que hay que saber es que es el famoso diagrama:
e|--------|-----------7-|
B|--------|-----------8-|
G|--------|---------9---|
D|--------|-------9-----|
A|--------|-----7-------|
E|-0-0-0--|-1-0---------|
Aquí va la explicación:

Lo básico:
e,B,G,D,A,E = Nombre de la cuerda -de más delgada a más
gruesa.
----- = Cuerda.
| = Comienzo o término de un compás, o a veces es
simplemente una separación.
1,2,3... etc. = Número del espacio pulsado. Los ceros undican
que
la cuerda se toca sin pulsarla

Lo más teórico
h (hammer on) = tocar una nota y pulsar la otra si volver a
tocarla
p (pull off) = Se toca una nota y se saca el dedo de esa nota
para
que suene la otra nota
sl(slide) = resbalar de un espacio a otro
b (bend) = Tocar una nota en cierto espacio y tirar la cuerda
hacia arriba o abajo. Esto hace sonar una nota más aguda.
~~ = vibrato suave:tirar muy poco la cuerda hacia arriba y
abajo
pero rápidamente
^^^ = vibrato exagerado: Lo mismo que antes, pero se tira más
la cuerda. También se puede hacer con la barra (tremolo)
() = Nota que sigue sonando ,pero sin volver a tocarla.
PM.(palm mute)= Poner la palma de la mano derecha suavemente
sobre las
cuerdas, pero donde empiezan a salir las cuerdas.
* = Ver nota aparte
/ (slide up) = rebalar hacia adelante
\ (slide down)= resbalar hacia atrás
t (tapping) = usar dedo(s) de la mano derecha para pulsar
cuerda.
H = Harmónico. Se toca la cuerda rozándola.
AH = Harmónico artificial. se toca la nota y con la yema
del dedo se corta el sonido haciéndolo más agudo.
C E Em
_ _ _0_ _0 0_ _ _ _0_0 0_ _ _0_0_0
|_|_|_|_1_| |_|_|_1_|_| |_|_|_|_|_|
|_|_2_|_|_| |_2_3_|_|_| |_2_3_|_|_|
|_3_|_|_|_| |_|_|_|_|_| |_|_|_|_|_|
|_|_|_|_|_| |_|_|_|_|_| |_|_|_|_|_|
|_|_|_|_|_| |_|_|_|_|_| |_|_|_|_|_|
F Fm G
_ _ _ _ _ _ _ _ _ _ _ _0_0_ _
1_1_1_1_1_1 1_1_1_1_1_1 |_|_|_|_|_|
|_|_|_2_|_| |_|_|_|_|_| |_1_|_|_|_|
|_3_4_|_|_| |_3_4_|_|_| 2_|_|_|_3_4
|_|_|_|_|_| |_|_|_|_|_| |_|_|_|_|_|
|_|_|_|_|_| |_|_|_|_|_| |_|_|_|_|_|
A Am B
x_0_ _ _ _0 x_0_ _ _ _0 x_ _ _ _ _
|_|_|_|_|_| |_|_|_|_1_| |_|_|_|_|_|
|_|_1_2_3_| |_|_2_3_|_| |_1_1_1_1_1
|_|_|_|_|_| |_|_|_|_|_| |_|_|_|_|_|
|_|_|_|_|_| |_|_|_|_|_| |_|_2_3_4_|
|_|_|_|_|_| |_|_|_|_|_| |_|_|_|_|_|

A*
x_0_ _ _ _0
|_|_|_|_|_|
|_|_1_2_3_|
|_|_|_|_|_|
|_|_|_|_|_|
|_|_|_|_|_|

Antes de tomar la guitarra, necesitamos saber cual es laposición correcta de sentarnos para poder sostenerla y tocarla.
Necesitas sentarte en una silla resistente con base plana lo suficientemente alta para que tus piernas queden flexionadas en
90 grados, con tus pies apoyando toda su base en el piso, tus rodillas deben estar separadas a la anchura de tus hombros.
Tu espalda debe estar derecha y tus hombros relajados y nivelados. Procura que la ropa no te estorbe al tocar, siempre pasa
que la manga esta apagado el sonido de las cuerdas.
Como Sostener la Guitarra
Posición normal Apoya la cintura de la guitarra en tu pierna derecha y coloca tu antebrazo derecho sobre el borde de la
caja. El mástil queda cerca del cuerpo y un poco inclinado hacia arriba. No pegues la guitarra a tu estómago. Inclina un poco
la parte superior de la guitarra hacia dentro para que no tengas que inclinarte demasiado para ver donde pones los dedos de
ambas manos.

Posición clásica
Apoya la cintura de la guitarra en la pierna izquierda, con el mástil inclinado hacia arriba, de manera que la mano izquierda
llegue con facilidad al diapasón. El antebrazo derecho se apoya en el borde de la caja. En esta posición el peso de la
guitarra queda bien equilibrado. El pie izquierdo se apoya en un apoyapies para que la pierna quede un poco levantada.
Posición de Pie
Cualquier guitarra se puede tocar de pie colgándola con una correa. Es importante que el instrumento cuelgue con el peso
hacia el cuerpo y con un buen centro de gravedad, para que las manos y los brazos puedan moverse con libertad.
Muchos guitarristas modernos tienden a colgarse laguitarra muy baja por motivos estéticos, pero así resulta más difícil
tocar y no es recomendable para principiantes. Para una mayor soltura de la mano izquierda, el mástil debe de quedar
inclinado hacia arriba.
La Mano Izquierda
El dedo pulgar lo colocas detrás del mástil, dejando a los demás dedos libres para pisar las cuerdas. La presión del pulgar
se suma a la fuerza de los dedos. La presión la aflojas después de tocaralguna nota o acorde, dejando a la mano moverse
con libertad por el mástil. Procura que el dedo pulgar no se cuelgue del brazo de la guitarra. La palma de la mano no
debe tocar el mástil de la guitarra, esto es para dejar más libremente a los demás dedos hacer bien su trabajo; de ésta
manera le das a tus dedos mucha fuerza para presionar las cuerdas.
Es importante que al momento de tocar tengas la posición correcta (la natural), relajado, sin tensión alguna; evitando que te
estreses y tratando de formar buenos hábitos desde el principio. Nada de poner las piernas detrás de los primeras patas de la
silla, ni aplastarse en ella, ¿de acuerdo?, bien.
Procura que los dedos que pisan las cuerdas no apaguen el sonido de las cuerdas adyacentes y que estos al pisar las
cuerdas lo hagan apretando aproximadamente a poco más de dos tercios de la distancia entre un traste y otro.

v
Con esta BREVES ANOTACIONES, pretendo que cada alumno conozca de forma básica el funcionamiento del instrumento
que nos ocupa (GUITARRA) y pueda empezar a disfrutar tocando sus canciones favoritas.
Para ello, uno de los principales objetivos es aprender un vocabulario de acordes que permitan, aunque de forma simple,
tocar muchas canciones.
En la GUITARRA, es la mano IZQUIERDA la que establece laposición de los acordes que pretendemos realizar y la
DERECHA, es la que mueve rítmicamente y hace VIBRAR cada CUERDA para que suene la posición establecida en la otra
mano. Para ello hay que enseñarle a la mano izquierda a recordar las diversas posiciones, aprender a cambiar
rápidamente de acorde y lograr un buen sonido. Hay que comenzar por examinar cuidadosamente cada acorde y tratar de
memorizar su forma (postura de los dedos) se colocan los dedos uno a uno y se hace sonar cada cuerda por separado, para
comprobar que cada cuerda suena correctamente.

DIAGRAMAS o ESQUEMA DE ACORDES


Para aprender los acordes básicos es necesario saber leer los diagramas de acordes. Son esquemas que representan las
cuerdas y los trastes de la guitarra.

• Las líneas horizontales son las cuerdas, con la primera (MI) arriba y la sexta(también MI) abajo.

• Las líneas verticales son los trastes y las posiciones de los dedos están indicadas por círculos rojos sobre las
cuerdas. Si una cuerda no tiene circulo es que se toca al aire, si la cuerda tiene una X significa que la cuerda no
hace parte del acorde y no debe sonar.
Estos primeros acordes no presentan la “cejilla” que consiste en pisar con el dedo índice varias cuerdas, con lo que la
dificultad es mayor. De esas posiciones nos ocuparemos más adelante.

ACORDES BÁSICOS
DO Mayor

MI Mayor

MI menor

MI7

LA Mayor

LA menor
LA7

RE Mayor

RE menor

RE7

DO Mayor
DO7

SOL Mayor

SOL7

SI7

FA Mayor

PRIMERAS CONCLUSIONES: Aprender estos quince acordes es la primera tarea. Están propuestos en orden de dificultad
• los tres primeros –MI Mayor, MI menor y MI7- son quizás los más fáciles:
○ primero porque se tocan las seis cuerdas;
○ segundo porque solo hay que mover un dedo para cambiar de acorde.

• Los acordes de DO7 y SI7 exigen una digitación más precisa para que todas lasnotas suenen limpiamente.

• Y para tocar el acorde de FA Mayor, el dedo índice debe pisar dos notas a la vez, esto es una cejilla simple.

HACER ESTE EJERCICIO QUE OS PLANTEO: nos sirve para ejecutar cambios de posición y afianzar cada nuevo acorde
aprendido. Se plantea con los tres primerosacordes pero se debe practicar con las demás posiciones.

Cada acorde se toca cuatro veces y luego se cambia a la siguiente


posición. Los cambios al principio deben ser dedo por dedo y cuidando
que las cuerdas suenen limpiamente. La exactitud en los cambios traerá
la habilidad necesaria para hacerlo más rápido, así que hay que empezar
lentamente. ¡Ánimo!

Los arpegios por defición son la pulsacion secuencial de las notas de un acorde, o sea que cuando tocamos un arpegio es
como si estuvieramos tocando un acordepero nota a nota, no todas juntas. El tocar arpegios debe hacerse con
la púa alternada al igual que si estuvieramos tocando unaescala. En ocasiones se realizan por medio de
una tecnicallamada sweet picking (o barridos). El dominio total de esta ultima técnica nos dara una habilidad impresionante
e impresionable, ya que un gran numero de guitarristas utilizanarpegios en sus solos. En general los virtusos realizan
movimientos arpegiados a lo largo del diapasón con mucha velocidad que a todos nos sorprende. Es
bueno estudiar diferentes arpegios en diferentes posiciones y en diferentes tonalidades, esto da como resultado miles de
combinaciones que seran de muchisima utilidad en tus solos. Hay guitarristas que casi prescinden de escalas cuando
puntean, dandole a los arpegios un primer plano.Tocando estos nunca vamos a escuchar una nota que no nos guste debido
a que el acorde base de la progresion que estamos tocando va a contener las mismas notasque nuestro punteo. Claro que
si estamos punteando sobre un acorde mayor, por ejemplo, podemos agregarle la septima, la novena u otras notas para que
quede mas relleno.
Un sonido bien caracteristico del metal neoclasico es el arpegio menor con la 9na añadida, el mismo combinado a la escala
menor armonica queda excelente para este estilo. Aqui abajo tiene los principales arpegios en todo el diapasón y el arpegio
menor9na que te digo. No olvides que en la sección Gutar licks tenes mas ideas arpegiadas.
Arpegio Mayor en La

Arpegio Menor en La

Arpegio Mayor con la 7ma disminuida en La


Arpegio menor con la 7ma disminuida en La

Arpegio menor con la 9na añadida en La

E||------------------|--------------------------|-----------------2--3----|
B||------------------|--------------------------|-----------3--5----------|
G||------------------|--------------------------|--2--4--5----------------|
D||------------------|-----------------2--4--5--|-------------------------|
A||------------------|--------2--3--5-----------|-------------------------|
E||------------------|--3--5--------------------|-------------------------|

------------------|--------------------------|---------------------------|
------------------|--------------------------|--------------5--7--8--10--|
------------------|--------------------------|-----4--5--7---------------|
------------------|--------------------4--5--|--7------------------------|
------------------|-----------3--5--7--------|---------------------------|
------------------|--3--5--7-----------------|---------------------------|

--7--8--10--12--14--15------|------------------|----------------------------|
----------------------------|------------------|----------------------------|
----------------------------|------------------|--0--2--4--5--7--9--11--12--|
----------------------------|------------------|----------------------------|
----------------------------|------------------|----------------------------|
----------------------------|------------------|----------------------------|

------------------------------|------------------|--0--2--3--5--7--8--10--12--|
------------------------------|------------------|----------------------------|
--14--16--17--19--21--23------|------------------|----------------------------|
------------------------------|------------------|----------------------------|
------------------------------|------------------|----------------------------|
------------------------------|------------------|----------------------------|

--14--15--17--19--20--22------|------------------|
------------------------------|------------------|

------------------------------|------------------|
------------------------------|------------------|
------------------------------|------------------|
------------------------------|------------------|

--2--3--2--3------------------|--------------------------------------|
----------------7--8--7--8----|--------------------------------------|
------------------------------|--11--12--11--12----------------------|
------------------------------|--------------------16--17--16--17----|
------------------------------|--------------------------------------|
------------------------------|--------------------------------------|

----------------------------|------------------|--------------------------|
----------------------------|------------------|--------------------------|
----------------------------|------------------|-----------------2--4--5--|
----------------------------|------------------|--------2--4--5--2--4--5--|
--21--22--21--22------------|------------------|--3--5--2--3--5-----------|
----------------------------|------------------|--3--5--------------------|

--------2--3--5--7--8--10--|--12--14--15--17--19--20------|------------------|
--3--5--1--3--5--7--8--10--|--12--13--15--17--19--20------|------------------|
--2--4---------------------|------------------------------|------------------|
---------------------------|------------------------------|------------------|
---------------------------|------------------------------|------------------|
---------------------------|------------------------------|------------------|

--4----------------|--5----------------|--7----------------|
--5----------------|--7----------------|--9----------------|
--4----------------|--6----------------|--8----------------|
-------------------|-------------------|-------------------|
-------------------|-------------------|-------------------|
-------------------|-------------------|-------------------|

--9-----------------|--11----------------|--12----------------|
--10----------------|--12----------------|--14----------------|
--9-----------------|--11----------------|--13----------------|
--------------------|--------------------|--------------------|
--------------------|--------------------|--------------------|
--------------------|--------------------|--------------------|

--14----------------|--16----------------|------------------|
--16----------------|--17----------------|------------------|
--14----------------|--16----------------|------------------|
--------------------|--------------------|------------------|
--------------------|--------------------|------------------|
--------------------|--------------------|------------------|

-----------------0----|-----------------4----|-------------------7----|
------------0----0----|------------5----5----|--------------9----9----|
-------1----1----1----|-------4----4----4----|--------9-----9----9----|
--2----2----2---------|--6----6----6---------|--9-----9-----9---------|
--2----2--------------|--7----7--------------|--11----11--------------|
--4-------------------|--7-------------------|--12--------------------|

------------------||
------------------||
------------------||
------------------||
------------------||

------------------||