You are on page 1of 40

Ê 

 


 ‘
‘
‘
‘
‘
‘‘‘‘‘
 ‘ ‘ ‘ ‘  ‘ ‘    ‘ ‘‘ ‘
‘ ‘
‘ ‘ ‘
‘‘‘ ‘  ‘
‘  ‘ ‘  ‘ ‘
‘
‘
‘
 a  ‘
 ‘  !   ‘
  ‘
‘ "‘
‘
 ‘
‘
‘‘‘‘#‘‘‘‘‘‘‘‘‘‘$‘‘‘‘‘‘‘%‘
&'&(&&‘
$&''&'&))')&‘
#&*&*&&‘
+&,&&&‘
-&&(&'&‘
&'&&&‘
‘
‘
‘‘‘‘#‘‘‘‘‘‘‘‘‘‘$‘‘‘‘‘‘‘%‘
&'&(&&‘
$&''&'&)))'&‘
#&*&*&&‘
+&,&&&‘
-&&(&'&‘
&'&&&‘
‘
‘
.‘#‘‘‘‘‘‘‘‘‘‘‘‘‘‘$‘
+‘ ‘ ‘ ‘
%‘‘‘‘‘‘‘‘‘‘‘‘‘‘‘‘‘‘‘‘‘‘‘‘‘‘‘‘‘‘+‘
. ‘ ‘    ‘ ‘ ‘
#‘‘‘‘‘‘‘‘‘‘‘‘‘‘‘‘‘‘$‘
+‘ ‘ ‘ ‘
%‘‘‘‘‘‘‘‘‘‘‘‘‘‘‘‘‘‘‘‘‘‘‘‘‘‘‘‘‘‘‘‘‘‘‘‘‘‘+‘
/ ‘ ‘
 ‘ ‘ ‘  ‘
‘
$ ‘
%‘‘‘‘‘‘‘‘‘‘‘‘‘‘‘‘‘‘‘‘‘‘‘‘‘‘#‘
0  " ‘ ‘ ‘ ‘ ‘‘
%‘‘‘‘‘‘‘‘‘‘‘‘‘‘‘‘‘‘‘‘‘‘‘‘‘‘‘‘‘‘‘+‘
/  ‘ ‘ ‘ ‘ ‘ ‘  ‘
‘
%
‘
%‘‘‘‘‘‘‘‘‘‘‘‘‘‘‘‘‘‘‘‘‘‘‘‘‘‘‘‘‘‘‘‘‘‘‘‘‘‘1#‘
- ‘ ‘ ‘ ‘‘"  ‘
%‘‘‘‘‘‘‘‘‘‘‘‘‘‘‘‘‘‘‘‘‘‘‘‘‘‘‘‘‘‘‘‘‘‘1#‘
- ‘ ‘ ‘  ‘ ‘

c
%‘‘‘‘‘‘‘‘‘‘‘‘‘‘‘‘‘‘‘‘‘‘‘‘‘‘‘‘#‘
/  ‘ ‘ ‘  ‘

/ ‘ ‘  ‘  ‘
‘‘‘‘‘‘‘‘‘‘‘‘+‘
 ‘  "‘
‘
2  ‘ ‘1‘  ‘ ‘‘ 3‘
‘
&)(4&‘
$&)(4&‘
#&)(4&‘
+&)(4&‘
-&&‘
&&‘
..‘2 ‘ ‘ ‘‘.3‘
‘
-  ‘ ‘" ‘
/ ‘ ‘  ‘ ‘‘ ‘   ‘
- ‘ ‘ ‘ ‘ "‘
5  ‘ ‘ ‘
 ‘
‘
$ 2 ‘ 3‘
‘
0   ‘ ‘ ‘ ‘  ‘
 ‘
#‘ ‘‘ ‘  ‘ ‘   ‘
‘
2  ‘
3‘
2  3‘
&&&‘
$&&&‘
#&&&‘
+&,66&,6617)766,,66&‘
-&,,&6&‘
&&&‘
‘
&&&&‘
$&&&&‘
#&&&&‘
+&)767&)7,16,&6,*,,1)76,&‘
-&,6)&,6&,&‘
&&&&‘
‘
" 2 ‘ 3‘
‘
8‘ ‘ "
‘ ‘ ‘  ‘
$  ‘ ‘ ‘ ‘    ‘
‘
2  ‘
3‘
‘

‘..2 ‘ 3‘
8  ‘ ‘ ‘ ‘ ‘   "‘
0  ‘ ‘ ‘ ‘‘ ‘ "‘
9 ‘ ‘  ‘ ‘
9 ‘ ‘  ‘ ‘ ‘ ‘"‘

u
‘
 ‘ ‘
9+‘
‘
 ‘
‘"‘
‘‘‘‘‘‘‘‘‘‘‘‘‘‘‘‘‘‘‘‘‘‘‘‘‘‘‘‘‘‘‘‘‘‘‘‘‘‘‘‘‘‘‘‘‘‘‘‘‘‘‘‘‘‘‘‘‘‘‘‘‘‘‘‘‘‘‘‘‘‘‘‘‘‘‘‘‘‘‘‘‘‘‘‘‘‘‘‘‘‘
‘‘‘‘‘‘‘‘‘‘‘‘‘‘‘‘‘‘‘‘‘‘‘‘‘‘‘‘‘‘‘‘‘‘‘‘‘‘‘‘‘‘  !   ‘
/ ‘-‘
- ‘/  ‘
 ""‘+ ‘-‘-
 ‘2$ 0  ‘$ 3‘
 ‘   
 !   ‘
‘
‘
8‘ ‘‘ ":::‘
‘
;: ‘ ‘" ‘ ‘8  ‘$ :::‘‘
;: ‘<‘= >‘ ‘(?‘%  ‘@‘;: ‘‘= :::‘
‘+ ‘‘ ""‘ ‘8  ‘    ‘/ ‘$   ‘$  ‘‘‘
‘
/  ‘

‘ "‘
‘
‘
. ‘
.‘'' ‘.‘
.‘'''')‘.‘
.‘‘.‘
.‘‘.‘‘2(A3‘
.‘(('''‘.‘
.‘'‘.‘
‘
B ‘)‘
.‘' '' ' ‘.‘
.‘'''''‘.‘
.‘* *(‘.‘‘‘
.‘''‘.‘‘2(A3‘
.‘,,((''‘.‘
.‘''‘.‘
B ‘
+‘ ‘ ‘ ‘
. ‘ ‘    ‘ ‘ ‘
+‘ ‘ ‘ ‘
/ ‘ 
 ‘ ‘ ‘  ‘
‘
< ‘
.‘' '' ' ''(‘.‘
.‘'''''‘.‘
.‘, ,‘.‘
.‘,,‘.‘
.‘((''‘.‘
.‘,,‘.‘
< ‘
‘
0  " ‘ ‘ ‘ ‘ ‘
/  ü‘  ‘ ‘ ‘ ‘ ‘  ‘

^
‘
‘
%
‘
.‘' '' '' '' '‘.‘
.‘''''''''‘.‘
.‘‘.‘
.‘‘.‘
.‘''((''''‘.‘
.‘‘.‘
‘
.‘' ' ‘.‘
.‘''''‘.‘
.‘* *, ,(‘.‘
.‘,,‘.‘
.‘,''‘.‘
.‘'',,‘.‘
‘
%
‘
‘
- ü‘ ‘ ‘ ‘‘" ‘
- ‘ ‘ ‘  ü‘ ‘
/  ‘ ‘ ‘  ‘
/  ‘  ‘  ü‘   "‘
‘
‘
‘
. ‘
.‘'' ‘.‘‘‘‘‘‘‘.‘)(‘.‘
.‘'''')‘.‘‘‘‘‘‘‘.‘)(‘.‘
.‘‘.‘‘‘‘‘‘‘.‘)(‘.‘;  ‘
.‘‘.‘‘2(A3‘.‘‘.‘
.‘(('''‘.‘‘‘‘‘‘‘.‘‘.‘
.‘'‘.‘‘‘‘‘‘‘.‘‘.‘
‘
‘
B ‘(‘
.‘' '' ' ‘.‘
.‘'''''‘.‘
.‘* *(‘.‘‘‘
.‘''‘.‘‘2(A3‘
.‘,,((''‘.‘
.‘''‘.‘
‘
B ‘(‘
‘
-  ‘ ‘" ‘
/  ‘‘  ‘ ‘‘    ‘
- ‘ ‘ ‘ ‘ "‘
5  ‘ ‘ ‘ ‘ ‘
‘
‘
< ‘
.‘' '' ' ''(‘.‘
.‘'''''‘.‘
.‘, ,‘.‘
.‘,,‘.‘

Œ
.‘((''‘.‘
.‘,,‘.‘
‘
< ‘
‘
0   ‘ ‘ ‘ ‘  ü‘
 ‘
#‘ ‘‘ ‘  ‘ ‘   ‘
‘
2< ‘%
3‘
‘
-"‘
.‘‘.‘
.‘‘.‘
.‘,**‘.‘
.‘,,,66 ,66177766,,,166 ,6,,16,‘.‘
.‘‘.‘
.‘‘.‘
‘
‘
.‘‘.‘
.‘‘.‘
.‘,*,*‘.‘
.‘,6,,16,6,*,,16,,66‘.‘
.‘‘.‘
.‘‘.‘
‘
‘
$ ‘
.‘' '' ' ''(‘.‘
.‘'''''‘.‘
.‘, ,‘.‘
.‘,,‘.‘
.‘((''‘.‘
.‘,,‘.‘
‘
$ ‘
‘
8‘ ‘ "
‘ ‘ ‘  ‘
$  ü‘ ‘ ‘ ‘ ‘    ‘
‘
‘
‘
%
‘
.‘' '' '' '' '‘.‘
.‘''''''''‘.‘
.‘‘.‘
.‘‘.‘
.‘''((''''‘.‘
.‘‘.‘
‘
.‘' ' ‘.‘
.‘''''‘.‘
.‘* *, ,(‘.‘
.‘,,‘.‘2(>‘C ‘%
3‘
.‘,''‘.‘
.‘'',,‘.‘

º
‘
%
‘
‘
- ü‘ ‘ ‘ ‘‘" ‘
- ‘ ‘ ‘  ü‘ ‘
/  ‘ ‘ ‘  ‘
/  ‘  ‘  ü‘   "‘‘
8  ‘ ‘ ‘ ‘ ‘   "‘
0  ‘ ‘ ‘ ‘ ‘ "‘
9 ‘ ‘  ‘ ‘ ‘ ‘  ‘
-‘ ‘ ‘"‘
‘
‘
.‘'' ‘.‘‘‘‘‘‘‘.‘)(‘.‘
.‘'''')‘.‘‘‘‘‘‘‘.‘)(‘.‘
.‘‘.‘‘‘‘‘‘‘.‘)(‘.‘;  ‘
.‘‘.‘‘2(A3‘.‘‘.‘‘‘‘‘
.‘(('''‘.‘‘‘‘‘‘‘.‘‘.‘
.‘'‘.‘‘‘‘‘‘‘.‘‘.‘
‘
‘
‘
# 
::::::::‘
 ""‘"‘C ‘C ‘$‘D ‘
$ ‘/  ‘
/ ‘-‘
8 ‘ ‘/ ‘. ‘
 ‘  )6!   ‘
‘
‘ ‘
‘  ‘
‘ ‘ ‘
‘‘‘ ‘ ‘ ‘‘ ‘
777E‘
‘
‘
‘
‘‘‘‘#‘‘‘‘‘‘‘‘‘‘$‘‘‘‘‘‘‘%‘
&'&(&&‘
$&''&'&))))&‘
#&*&*&&‘
+&,&&&‘
-&&(&'&‘
&'&&&‘
‘
‘
‘‘‘‘#‘‘‘‘‘‘‘‘‘‘$‘‘‘‘‘‘‘%‘
&'&(&&‘
$&''&'&))))&‘
#&*&*&&‘
+&,&&&‘
-&&(&'&‘
&'&&&‘
‘
‘B ‘/ . ‘ ‘‘‘‘‘ ‘ ‘
 ‘.‘ ""‘‘ ‘ ‘‘ ‘ ‘  ‘
 ‘  ‘
=‘ ‘ ‘ ‘
‘

‰
  )6!   ‘2  ‘ 
3‘
‘
‘
‘
 ‘ ‘
‘ ‘ ‘
‘ "‘ ‘ ‘ ‘ ‘ ‘ ‘
‘ 


 ‘ ‘ ‘ ‘‘
 ‘     ‘ ‘ ‘


 ‘
‘
< ‘.F ‘G‘G ‘G ‘%  ‘C ‘ ‘> ‘‘C ‘
‘
"‘
‘
&&&‘
$&&&‘
#&&&‘
+&,66&,6617)766,,66&‘
-&,,&6&‘
&&&‘
‘
&&&&‘
$&&&&‘
#&&&&‘
+&)767&)7,16,&6,*,,1)76,&‘
-&,6)&,6&,&‘
&&&&‘
/ ‘-‘
- ‘/  ‘
 ""‘+ ‘-‘-
 ‘2$ 0  ‘$ 3‘
 ‘   
 !   ‘
‘
‘
8‘ ‘‘ ":::‘
‘
;: ‘ ‘" ‘ ‘8  ‘$ :::‘‘
;: ‘<‘= >‘ ‘(?‘%  ‘@‘;: ‘‘= :::‘
‘+ ‘‘ ""‘ ‘8  ‘    ‘/ ‘$   ‘$  ‘‘‘
‘
/  ‘

‘ "‘
‘
‘
. ‘
.‘'' ‘.‘
.‘'''')‘.‘
.‘‘.‘
.‘‘.‘‘2(A3‘
.‘(('''‘.‘
.‘'‘.‘
‘
B ‘)‘
.‘' '' ' ‘.‘
.‘'''''‘.‘
.‘* *(‘.‘‘‘
.‘''‘.‘‘2(A3‘
.‘,,((''‘.‘
.‘''‘.‘

6
B ‘
+‘ ‘ ‘ ‘
. ‘ ‘    ‘ ‘ ‘
+‘ ‘ ‘ ‘
/ ‘ 
 ‘ ‘ ‘  ‘
‘
< ‘
.‘' '' ' ''(‘.‘
.‘'''''‘.‘
.‘, ,‘.‘
.‘,,‘.‘
.‘((''‘.‘
.‘,,‘.‘
< ‘
‘
0  " ‘ ‘ ‘ ‘ ‘
/  ü‘  ‘ ‘ ‘ ‘ ‘  ‘
‘
‘
%
‘
.‘' '' '' '' '‘.‘
.‘''''''''‘.‘
.‘‘.‘
.‘‘.‘
.‘''((''''‘.‘
.‘‘.‘
‘
.‘' ' ‘.‘
.‘''''‘.‘
.‘* *, ,(‘.‘
.‘,,‘.‘
.‘,''‘.‘
.‘'',,‘.‘
‘
%
‘
‘
- ü‘ ‘ ‘ ‘‘" ‘
- ‘ ‘ ‘  ü‘ ‘
/  ‘ ‘ ‘  ‘
/  ‘  ‘  ü‘   "‘
‘
‘
‘
. ‘
.‘'' ‘.‘‘‘‘‘‘‘.‘)(‘.‘
.‘'''')‘.‘‘‘‘‘‘‘.‘)(‘.‘
.‘‘.‘‘‘‘‘‘‘.‘)(‘.‘;  ‘
.‘‘.‘‘2(A3‘.‘‘.‘
.‘(('''‘.‘‘‘‘‘‘‘.‘‘.‘
.‘'‘.‘‘‘‘‘‘‘.‘‘.‘
‘
‘
B ‘(‘
.‘' '' ' ‘.‘
.‘'''''‘.‘
.‘* *(‘.‘‘‘


.‘''‘.‘‘2(A3‘
.‘,,((''‘.‘
.‘''‘.‘
‘
B ‘(‘
‘
-  ‘ ‘" ‘
/  ‘‘  ‘ ‘‘    ‘
- ‘ ‘ ‘ ‘ "‘
5  ‘ ‘ ‘ ‘ ‘
‘
‘
< ‘
.‘' '' ' ''(‘.‘
.‘'''''‘.‘
.‘, ,‘.‘
.‘,,‘.‘
.‘((''‘.‘
.‘,,‘.‘
‘
< ‘
‘
0   ‘ ‘ ‘ ‘  ü‘
 ‘
#‘ ‘‘ ‘  ‘ ‘   ‘
‘
2< ‘%
3‘
‘
-"‘
.‘‘.‘
.‘‘.‘
.‘,**‘.‘
.‘,,,66 ,66177766,,,166 ,6,,16,‘.‘
.‘‘.‘
.‘‘.‘
‘
‘
.‘‘.‘
.‘‘.‘
.‘,*,*‘.‘
.‘,6,,16,6,*,,16,,66‘.‘
.‘‘.‘
.‘‘.‘
‘
‘
$ ‘
.‘' '' ' ''(‘.‘
.‘'''''‘.‘
.‘, ,‘.‘
.‘,,‘.‘
.‘((''‘.‘
.‘,,‘.‘
‘
$ ‘
‘
8‘ ‘ "
‘ ‘ ‘  ‘
$  ü‘ ‘ ‘ ‘ ‘    ‘

M
‘
‘
‘
%
‘
.‘' '' '' '' '‘.‘
.‘''''''''‘.‘
.‘‘.‘
.‘‘.‘
.‘''((''''‘.‘
.‘‘.‘
‘
.‘' ' ‘.‘
.‘''''‘.‘
.‘* *, ,(‘.‘
.‘,,‘.‘2(>‘C ‘%
3‘
.‘,''‘.‘
.‘'',,‘.‘
‘
%
‘
‘
- ü‘ ‘ ‘ ‘‘" ‘
- ‘ ‘ ‘  ü‘ ‘
/  ‘ ‘ ‘  ‘
/  ‘  ‘  ü‘   "‘‘
8  ‘ ‘ ‘ ‘ ‘   "‘
0  ‘ ‘ ‘ ‘ ‘ "‘
9 ‘ ‘  ‘ ‘ ‘ ‘  ‘
-‘ ‘ ‘"‘
‘
‘
.‘'' ‘.‘‘‘‘‘‘‘.‘)(‘.‘
.‘'''')‘.‘‘‘‘‘‘‘.‘)(‘.‘
.‘‘.‘‘‘‘‘‘‘.‘)(‘.‘;  ‘
.‘‘.‘‘2(A3‘.‘‘.‘‘‘‘‘
.‘(('''‘.‘‘‘‘‘‘‘.‘‘.‘
.‘'‘.‘‘‘‘‘‘‘.‘‘.‘
‘
‘
‘
# 
::::::::‘
-C.8.9"‘/  ‘
‘
‘
. ‘
‘‘#‘‘‘‘‘‘‘‘‘‘‘‘‘‘‘$6‘‘‘‘‘‘%‘‘‘‘‘‘‘‘‘‘‘0 H6‘‘‘‘‘‘‘ 7‘
'&(&&‘
$''&'&'&‘
#&(&&‘
+&&(&‘
-&(&''&‘
'&&&‘
‘
‘‘#‘‘‘‘‘‘‘‘‘‘‘‘‘‘‘$6‘‘‘‘‘‘%‘‘‘‘‘‘‘‘‘‘‘0 H6‘‘‘‘‘‘‘ 7‘
'&(&&‘
$''&'&')&‘

c
#&(&&‘
+&&(&‘
-&(&''&‘
'&&&‘
‘
.B ‘
‘‘‘‘#273‘‘‘‘4‘‘‘‘‘‘‘‘‘‘‘‘‘‘‘‘‘‘‘‘‘‘‘$6‘
&&‘
$&''''&‘
#(&((-&‘
+-&&‘
-8&(8((&‘
'&&‘
4‘ ‘
‘‘‘‘‘‘‘‘‘‘‘‘‘‘‘‘‘‘+‘‘ ‘ ‘‘ ‘‘ ‘‘‘‘‘‘‘‘‘‘‘‘‘‘‘‘‘‘‘‘‘‘‘‘‘‘‘
‘
‘%7‘‘‘‘‘‘‘‘‘‘‘‘‘‘‘‘‘‘‘‘‘‘‘‘‘‘‘‘‘‘+‘‘‘‘‘‘‘‘‘‘‘ 7‘
&&&‘
&''''&''''&‘
&-&((-((&‘
&&8&‘
&'8'''&&‘
&&&‘
‘
‘ ‘‘‘ ‘‘‘  ‘‘‘‘‘  ‘‘‘‘ ‘ ‘‘‘‘
‘
2< ‘‘ ‘ ‘  ‘
‘< 3‘
/‘   ‘" ‘< ‘
‘
‘+‘‘‘‘‘‘‘‘‘‘‘ 7‘
&&‘
&'''''I&‘
&((-((I&‘
&8&‘
&&‘
&&‘
‘
< ‘
‘
‘‘‘-6‘‘‘‘‘‘‘‘‘‘‘‘‘‘‘‘‘‘‘‘‘‘‘‘‘‘‘#273‘‘‘‘4‘
&&‘
$)))&&‘
#*&(&‘
+(*((&-&‘
-&&‘
&'8'&‘
‘
‘‘0  ‘" ‘‘‘‘‘‘ ‘‘‘‘‘ ‘‘‘‘‘‘‘‘ ‘‘‘‘ ‘‘‘‘‘‘ ‘ ‘
‘
‘-6‘‘‘‘‘‘‘‘‘‘‘‘‘‘‘‘‘‘‘‘‘‘‘‘‘‘‘+7‘
&&&‘
&))))&'''''&‘
&&(-(((&‘
&(-((&8&‘
&8&&‘
&&&‘

cc
‘
 ‘‘ ‘‘ ‘‘‘‘‘‘ ‘‘‘‘‘‘ ‘‘ ‘‘ ‘‘ ‘‘‘
‘
‘+
‘‘‘‘‘‘‘‘+‘
&'(&‘
&''''&‘
&(-((&‘
&8&‘
&&‘
&&‘
‘
‘‘‘‘‘‘‘‘‘‘‘‘‘‘‘‘‘‘‘‘‘‘‘‘‘‘‘- ‘‘ ‘
%
‘
‘‘%7‘‘‘‘‘‘‘‘‘‘‘‘‘‘‘‘‘‘‘‘‘‘‘‘‘‘‘‘‘‘$6‘‘‘‘‘‘‘ 
*‘
&((&‘
$''''&'','&‘
#-&((-((&‘
+&&‘
-'‘8''&(8(&‘
&&‘
‘
‘‘‘‘‘ ‘‘ ‘‘‘‘‘‘‘‘" ‘‘‘‘‘‘‘‘‘‘‘‘‘‘‘‘‘‘‘‘‘‘-‘‘‘‘ ‘‘
‘
‘%7‘‘‘‘‘‘‘‘‘‘‘‘‘‘‘‘‘‘‘‘‘‘‘‘‘‘‘‘‘?‘
&&&‘
&''''&&‘
&-*&*&‘
&(&***&‘
&'‘8'&&‘
&&&‘
‘
‘‘‘‘‘ ‘‘‘ ‘‘  ‘‘‘ ‘‘‘‘‘‘‘‘‘‘‘‘‘‘‘‘‘‘ ‘‘ ‘‘ ‘
‘
-6‘
&&&‘
&)))&&‘
&*&(&‘
&((*((&-&‘
&&(&‘
&&'8'&‘
‘
‘‘‘‘‘‘‘‘‘‘‘‘‘‘‘‘ ‘‘ ‘‘ ‘‘‘‘‘‘‘‘‘‘‘‘‘‘‘‘‘‘‘‘‘‘‘‘‘  ‘
‘
‘-6‘‘‘‘‘‘‘‘‘‘‘‘‘‘‘‘‘‘‘‘‘‘‘‘‘‘‘+7‘
&&&‘
&)))&''''&‘
&-&(-(((&‘
&((&8&‘
&8&&‘
&&&‘
‘
‘ ‘‘ ‘‘‘‘  ‘‘‘‘ ‘‘ ‘‘ "‘
‘
D
 ‘
‘‘#‘‘‘‘‘‘‘‘‘‘‘‘‘‘‘$6‘‘‘‘‘‘%‘‘‘‘‘‘‘‘‘‘‘0 H6‘‘‘‘‘‘‘ 7‘
'&(&&‘

cu
$''&'&''&‘
#&(&&‘
+&&((&‘
-&(&''&‘
'&&&‘
‘
‘‘#‘‘‘‘‘‘‘‘‘‘‘‘‘‘‘$6‘‘‘‘‘‘%‘‘‘‘‘‘‘‘‘‘‘0 H6‘‘‘‘‘‘‘ 7‘
'&(&2)(3&‘
$''&'&'2)(3&‘
#&(&2)(3&‘
+&&(>&‘
-&(&''&‘
'&&&‘
‘
2< ‘)‘/ F ‘B ‘< ‘ ‘%
‘  ‘ ‘(‘/ F 3‘
‘
..B ‘-  ‘ ‘" ‘  ‘  ‘ ‘‘    ‘
‘‘‘‘‘‘‘‘‘‘ 
 ‘ ‘  ‘ "‘
  ‘ ‘ ‘ ‘ ‘
‘< ‘0   ‘ ‘ ‘ ‘  ‘ ‘
 ‘
‘‘‘‘‘‘‘‘‘‘‘ ‘‘ ‘  ‘ ‘   ‘
‘‘%
‘2 ‘ 3‘
/‘   ‘‘(‘ F ‘
‘
‘‘%7‘‘‘‘‘‘‘‘‘‘‘‘‘‘‘‘‘‘‘‘‘‘‘‘‘‘‘‘‘?‘
&&‘
$''''&&‘
#-*&*&‘
+(*&**,*&‘
-'‘8'&&‘
&&‘
‘‘‘‘ ‘‘‘ ‘‘  ‘‘‘ ‘‘‘‘‘‘‘‘‘‘‘‘‘‘‘‘‘‘ ‘‘ ‘‘ ‘
‘
‘-‘‘‘‘‘‘ 7‘
&&‘
&)))&‘
&(&‘
&(((&‘
&&‘
&&‘
‘‘‘‘‘‘‘‘‘‘‘‘‘‘‘‘ ‘‘ ‘‘ ‘
. 
‘
&&‘
$&&‘
#&&‘
+&,I66,&‘
-&&‘
&&‘
‘‘‘‘#‘‘‘‘‘‘‘‘‘‘‘‘‘‘‘‘‘‘‘‘‘‘‘‘‘‘‘‘‘+7‘
&''&((&‘
$&'''''&''''''&‘
#&(&(((((&‘
+&&&‘
-&&&‘
&'&&‘
‘‘‘‘J‘‘‘‘‘J‘J‘‘‘J‘‘‘‘‘‘‘‘‘J‘‘‘J‘‘‘J‘‘‘‘‘J‘J‘‘‘J‘‘‘‘‘‘‘J‘‘‘J‘
‘
‘‘&&‘

c^
‘‘&&‘
‘‘&&‘
‘‘&617)766I,,66&‘
‘‘&&‘
‘‘&&‘
‘‘‘‘‘‘‘‘‘‘‘‘‘‘‘‘‘‘‘‘‘‘‘‘‘‘‘‘‘‘‘‘‘‘‘‘$6‘
‘‘&&(((&‘
‘‘&&'''''''&‘
‘‘&&(((((((((&‘
‘‘&((((((((&******&‘
‘‘&(((((((&((&‘
‘‘&&&‘
‘‘‘‘‘‘J‘‘‘‘‘J‘J‘‘‘J‘J‘J‘J‘J‘‘‘J‘‘‘‘‘‘‘J‘‘‘‘‘J‘J‘‘‘J‘J‘J‘J‘J‘‘‘J‘
‘
&&‘
$&&‘
#&&‘
+&)767)716,6,*,&‘
-&,6),6&‘
&&‘
‘‘‘‘‘‘‘‘‘‘-6‘‘‘‘‘‘‘‘‘‘‘‘‘‘‘‘‘‘‘‘‘‘‘‘‘‘‘#‘
&&&‘
$&))))))))&'''''&‘
#&&&‘
+&((((((&&‘
-&&((((&‘
&&''&‘
‘‘‘‘‘‘‘‘‘‘J‘‘‘‘‘J‘J‘‘‘J‘J‘J‘J‘J‘‘‘J‘‘‘‘‘‘‘J‘‘‘‘‘J‘J‘‘‘J‘J‘J‘J‘J‘‘‘J‘J‘J‘J‘
‘
‘‘&&‘
‘‘&&‘
‘‘&&‘
‘‘&1)76,&‘
‘‘&&‘
‘‘&&‘
‘‘‘‘%‘‘‘‘‘‘‘‘‘‘‘‘‘‘‘‘‘‘‘‘‘‘‘‘‘‘‘‘‘‘‘+‘‘‘‘‘‘‘‘‘‘‘‘‘‘‘‘‘‘‘$ ‘
‘‘&&(((&‘
‘‘&))))))))&''''''&‘
‘‘&&(((((&‘
‘‘&(((((((&&‘
‘‘&''&&‘
‘‘&&&‘
‘‘‘‘J‘‘‘‘‘J‘J‘‘‘J‘J‘J‘J‘J‘‘‘J‘‘‘J‘‘‘J‘‘‘‘‘J‘J‘‘‘‘‘‘‘‘‘‘‘J‘‘‘J‘
$ 2+ ‘
‘ ‘  3‘
‘
‘‘‘‘‘‘‘8‘ ‘ "
‘ ‘ ‘  ‘"  ‘ ‘ ‘ ‘    ‘
‘
%
2-‘ 3‘
‘
‘‘‘‘‘‘‘8  ‘ ‘ ‘ ‘ ‘   "‘  ‘ ‘ ‘ ‘ ‘ "‘
‘‘‘‘‘‘‘ ‘ ‘  ‘ ‘ ‘ ‘  ‘ ‘ ‘ ‘"‘
‘
‘ < ‘‘D
 ‘
‘
‘
2‘   ‘" ‘‘
 3‘


‘
&&‘
$&&‘
#&&‘
+&'1*&‘
-&*1,&‘
&&‘
‘
‘‘K‘‘  ‘ ‘
‘‘K‘‘
‘ ‘
1‘‘K‘‘‘

I‘‘K‘‘‘ ‘
>‘‘K‘‘ ‘ ‘
-8K‘‘ ‘‘ 1 ‘
23‘K‘‘ 
‘  ‘
LM‘K‘‘  ‘  ‘
‘‘K‘‘   ‘‘
NN‘K‘‘"  ‘‘
4‘‘K‘‘ ‘‘ ‘ ‘
J‘‘K‘‘

K‘‘C‘ ‘2 ‘‘)‘ ‘ ‘‘‘ ‘
‘ ‘‘(‘ L
‘ ‘‘
(‘ M3‘
‘
‘‘‘‘‘‘=‘ ‘ ‘ ‘ ‘
‘‘‘‘‘‘ 
  !   ‘‘  
"‘O9  ‘ ‘" P- ‘ ‘ O‘‘ ‘ >:‘
‘-C.8.9‘
- ‘/;-0<D%Q‘
‘
. ‘‘
‘‘
‘‘‘‘#7‘‘‘‘‘‘‘‘‘‘‘‘%6‘‘‘‘‘‘‘‘‘%7‘‘‘‘‘‘‘‘‘+
*‘
((('‘
-((((‘
+*‘‘2‘(>‘3‘
#‘
$('‘
'‘
‘
B ‘)‘
((('‘
-((((‘
+*‘‘2‘(>‘3‘
#‘
$('‘
'‘
‘
‘
< ‘
‘‘‘‘‘‘‘‘-6‘‘‘‘‘‘#7‘‘‘‘‘‘‘‘‘‘-6‘‘‘‘‘‘‘‘‘#‘
''‘
-''‘
+‘
#((‘
$))‘
''‘
‘


Q   ‘(‘ ‘  ‘
‘‘
‘‘‘‘‘‘‘‘‘‘‘‘‘‘‘‘-6‘‘‘‘‘‘‘#6‘‘‘‘‘‘‘‘‘‘‘‘‘+
*‘
''‘
-('(‘
+(*‘
#(‘
$)‘
'‘
‘
%
‘
‘‘‘‘#7‘‘‘‘‘‘‘‘‘‘‘‘%6‘‘‘‘‘‘‘‘‘%7‘‘‘‘‘‘‘‘‘+
*‘
((('‘
-((((‘
+*‘‘‘
#‘
$('‘
'‘
‘
‘
‘‘‘#7‘‘‘‘‘‘‘‘‘‘‘‘%6‘‘‘‘‘‘‘‘‘%7‘‘‘‘‘‘‘‘‘+
*‘
(((')(‘
-(((()(;  ‘
+*)(‘‘‘
#‘
$('‘
'‘
‘
B ‘(‘
‘
‘
‘
B ‘)‘
((('‘
-((((‘
+*‘‘2‘(>‘3‘
#‘
$('‘
'‘
‘
‘
(‘< ‘‘ ‘(‘‘‘
‘
‘‘‘‘‘‘‘-6‘‘‘‘‘‘#7‘‘‘‘‘‘‘‘‘‘-6‘‘‘‘‘‘‘‘‘#‘
''‘
-''‘
+‘
#((‘
$))‘
''‘
‘
Q   ‘ ‘
‘(‘
‘‘
‘‘‘‘‘‘‘‘‘‘‘‘‘‘‘‘-6‘‘‘‘‘‘‘#6‘‘‘‘‘‘‘‘‘‘‘‘‘+
*‘
''‘
-('(‘
+(*‘
#(‘


$)‘
'‘
‘
‘
%
‘
‘
‘‘‘‘#7‘‘‘‘‘‘‘‘‘‘‘‘%6‘‘‘‘‘‘‘‘‘%7‘‘‘‘‘‘‘‘‘+
*‘
((('‘
-((((‘
+*‘‘‘
#‘
$('‘
'‘
‘
‘‘‘#7‘‘‘‘‘‘‘‘‘‘‘‘%6‘‘‘‘‘‘‘‘‘%7‘‘‘‘‘‘‘‘‘+
*‘
(((')(‘
-(((()(;  ‘
+*)(‘‘‘
#‘
$('‘
'‘
‘
‘
/DCD‘
‘‘‘‘‘‘‘
&&&‘
$&&&‘
#&&&‘
+&,66&,6617)766,,66&‘
-&,,&6&‘
&&&‘‘  ‘ ‘‘ ‘ ‘
‘‘
&&&&‘
$&&&&‘
#&&&&‘
+&)767&)7,16,&6,*,,1)76,&‘
-&,6)&,6&,&‘
&&&&‘
‘
$ ‘
‘
9::‘ ‘ ‘‘< ‘‘‘‘
‘
‘‘‘‘‘‘‘-6‘‘‘‘‘‘#7‘‘‘‘‘‘‘‘‘‘-6‘‘‘‘‘‘‘‘‘#‘
''‘
-''‘
+‘
#((‘
$))‘
''‘
‘
‘
‘‘‘‘‘‘‘‘‘‘‘‘‘‘‘‘-6‘‘‘‘‘‘‘#6‘‘‘‘‘‘‘‘‘‘‘‘‘+
(‘‘‘
''‘
-('(‘
+(*‘

c6
#(‘
$)‘
'‘
‘
‘
< ‘%
‘
‘
‘‘‘‘#7‘‘‘‘‘‘‘‘‘‘‘‘%6‘‘‘‘‘‘‘‘‘%7‘‘‘‘‘‘‘‘‘+
*‘
((('‘
-((((‘
+*‘‘‘
#‘
$('‘‘‘‘‘‘
'‘
‘‘‘‘‘‘‘‘‘‘‘‘‘‘‘‘‘‘‘‘‘‘‘‘‘‘‘‘‘‘‘‘‘‘‘‘‘‘‘‘‘‘‘‘‘‘‘‘‘‘‘‘‘‘‘‘‘‘‘‘‘‘‘‘2*>3‘
‘‘‘#7‘‘‘‘‘‘‘‘‘‘‘‘%6‘‘‘‘‘‘‘‘‘%7‘‘‘‘‘‘‘‘‘+
*‘
(((')(‘
-(((()(;  ‘
+*)(‘‘‘
#‘
$('‘
'‘
‘
‘
‘   :‘ ‘ ‘ ‘(‘ "::‘‘  ‘ ::‘‘
 ‘ ‘ ‘"   :‘‘"  ‘
‘‘
‘ ‘
‘@‘   ‘ ‘ ‘
‘ ‘  ::‘  ‘ ‘
::‘‘R‘‘  ‘ ::‘-::‘
‘‘‘ R::‘  )!   ‘‘‘‘ ‘
‘‘" ‘‘‘"‘‘‘‘‘‘SJJT‘
‘

c
Borrowed Time
By Cueshe

Tabbed by Benjie

Intro: E  C#m  A (3x)


(play with Riff 1)

Verse 1:
E Abm
Every fight needs mending
A E
Every start has an end
Abm
Like the sunrise and the sunset
A
That's just how it ends

Interlude: E - C#m - A
(w/ Riff 1)
Refrain:
E Abm
Loved one borrowed time
A
Will never be yours nor mine
E Abm
I need you like youe need me
A B A
Where I oughta be

Chorus:
E B
Oh, it's good to be true
C#m A
If our hopes and dreams come true
E B C#m
Wish that I have more of this borrowed time
A
If only it would last a lifetime

Interlude: E - C#m  A (2x)


(w/ Riff 1)

Verse 2:
E Abm
This bitterness inside
A E
Is an empty space I hide
Abm
It never satisfies
A
Livin my life in a lie

Refrain:

cM
E Abm
Loved one borrowed time
A E
Will never be yours nor mine
Abm
I just closed my eyes
A B - A
I know that it will be alright

(Chorus)

Bridge:
G A E
Now that you have gone away
G A B
You seem so close but you're miles and miles away

(Chorus 3x)

Riff 1:
|----------7---------|
|--9---7-------7-----|
|----9---9---9---9---|
|--------------------|
|--------------------|
|--------------------|
*The keyboardist of Cueshe plays variations of this riff.. You may add notes if you
prefer..

That's all!!!
Just listen to the song to learn the song easier...
If you have any comments or questions you can e-mail me at benjiao_1228@yahoo.com
... Thanks!!!
‘

Ôong: BORROWED TIME


Artist : Cuesheü
Chord by : Johnny Gaengan Jr.
Ôchool : Ôaint Louis University (Baguio City)

Intro : C Am (3x)
C Am
Every fight needs mending
F
Every start has an end
C
Like the sunrise and the sunset
F C
Thatüs just how it ends

(Intro)

REFRAIN 1
C Am
Love one borrowed time

u
F
Will never be yours nor mine
C
I need you like you need me
G
where I ought to be

CHORUÔ
C G
Oh, itüs good to be true,
Am F
If our hope and dream come true
C G
Wish that I have more
Am
Of this borrowed time
F C
If only it would last a lifetime

Intro (2x)
C Am
This bitterness inside
F
Is an empty space I hide
C
It never satisfies
F C
Living my life in a lie

REFRAIN 2
C Am
Love one borrowed time
F
Will never be your nor mine
C
Iüll just close my eyes
G
I know that it will be alright

(repeat chorus)

Am - C
[bridge]
Bb F Gm-G
Now that you have gone away
Bb F Gm G
You seem so close but your miles and miles away

[repeat chorus 2x except lifetime]


[repeat chorus]

comments, questions, or suggestions niyo po @


jr_jbg@yahoo.com. (my friendster account)
Or text niyo po ako sa 09197483290
title: borrowed time
artist: cueshe

uc
tabbed by: dennis villaflor
darkangel_awp029@yahoo.com
916-578-5995
standard tuning: s-slide
intro: E-B-A
note:you can also play this intro without hitting the
strumming part if you wished.
E B
|--7-7-------7---------7-7-------7---------|
|--9-----9-------9-----7-----9-------9-----|
|--9---9---9---9---9---8---9---9---9---9---|
|--9-------------------9-------------------|
|----------------------9-------------------|
|------------------------------------------|

verse 1: E-B-C#m-A
E B
every fight needs mending
C#m
every start has an end
A
like the sunrise and the sunset
E-B-A
that's just how it ends

E B
love one borrowed time
C#m
will never be yours nor mine
A
i need you like you need me
B-A
where i oughta be

chorus: E-B-C#m-A
E B
oh it's good to be true
C#m A
if our hopes and dreams come true
E B C#m
wish that i have more of this borrowed time
A E-B-A
if only it would last a lifetime

verse 2: E-B-C#m-A

this bitterness inside


is an empty space i hide
it never satisfies
livin' my life in a lie

love one borrowed time


will never be yours nor mine
i just closed my eyes
i know that it will be alright

uu
rep chorus:

bridge: F-G-A
F G A
now that you have gone away
F G A--
you seems so close but you're miles and miles away

rep chorus using this plucking:

|----------0-----0--------2s3-2---------------|
|------0-----0----------4-------3-------------|
|----1---1-----1------4-----------4-----------|
|--2----------------4-------------------------|
|---------------------------------------------|
|---------------------------------------------|

|----------4----------------0-----0-----------|
|------5-----5---5------2-----2---------------|
|----6---6-----6------2---2-----2-------------|
|--6----------------2-------------------------|
|---------------------------------------------|
|---------------------------------------------|

rep chorus til the song ends..A--

Godspeed! ROCK ON!!!





‘
'')&‘
"'))''')),')ö)'')&‘
&‘
&‘
&‘
&‘
‘
‘
‘
‘
‘‘%‘ #‘
‘‘C ‘ ‘‘
‘
‘‘ -‘ =‘
/ ‘ ‘ ‘  ‘ ‘‘ ‘‘ ‘‘
‘‘%‘ #‘

u^
‘‘0 ‘   ‘ ‘ P‘
‘‘ -‘
Q
‘ ‘‘  "‘
‘‘ =‘
-‘‘  ‘‘  ‘
‘
%
‘
‘
‘‘ %‘
8‘‘ ‘‘
‘‘ #‘
9 ‘‘ ‘ ‘‘
‘‘ -‘ =‘
U‘  ‘ ‘  ‘   ‘ ‘
‘‘ %‘ #‘
/  ‘‘‘  ‘ ‘ ‘ ‘‘  ‘
‘‘ -‘ =‘
9 ‘ ‘  ‘ ‘ ‘ ‘ ‘ ‘‘ ‘‘
‘‘ %‘
C ‘"
‘ ‘ ‘
 ‘ ‘
‘‘ #‘

 ‘‘"‘ ‘
‘‘ -‘
C ‘ ‘ ‘ ‘ ‘ ‘
=‘%‘2 3‘
-‘ ‘  ‘
‘
‘‘%‘ #‘
‘‘8   ‘‘ ‘
‘‘ -‘
‘   ‘ ‘
 ‘
‘‘ =‘ %‘
-‘‘ ‘ ‘  ‘‘‘‘
‘‘ #‘
+  ‘‘ ‘
‘‘ -‘ =‘
;‘‘ ‘  ‘ ‘‘ ‘ ‘   ‘
‘
%;D<5/‘
2 3‘
‘
%;D<5/‘
‘
 ‘R
 ‘ ‘
 ‘ ‘ ‘!‘
H H"!   ‘2‘  ‘ 
3‘
D ‘>‘ ‘ ‘  ‘ ‘7)76* '(7‘
‘


9+‘
‘
VV‘
‘
‘
‘
&‘‘‘‘‘
 ‘ ‘ ‘ ‘  ‘ ‘    ‘&‘
&‘ ‘‘ ‘
‘ ‘ ‘
‘‘‘ ‘  ‘
‘  ‘&‘
&‘ ‘  ‘&‘
VV‘
‘
‘
‘
‘
5 #
 % ‘;‘(,‘
‘

song: Ôana
artist: shamrock
Tabbed by: Bernard Dominguez

e-----------12-----------------12--------10--9--7--------------!
b--12----10-----------10-12--10--------10---------10--12--10---!
g------9------------9------------------------------------------!
d------------------9-------------------------------------------!
a--0-------0-----12-------12----0----12--------------------0---!
E--------------------------------------------------------------!

Ôo that's al, this is my first tabbed so pagtyagaan nyu nlng. I based it in the
tune of
so it was kinda difficult upon replacing your finger but im sure it sounds near.
and suggestions feel free just email me at bernard_m_d@yahoo.com

just want to hi all of my friends and to all staff of ultimate-guitar see y'all...

paki rate nlng po ito please thanks.


here is my cp # if you have questions.
+639193721414
bago lang ako d2 sana maintindihan nyo 2 maganda to try nyo lng
^^ maganda 2ng song na to paborito ko 2 kc ako c captain barbell hahaha ako c teng
Verse1:
G Bm
Nais kong iyong malaman
C D
Ngunit di ko naman pwedeng sabihin
G Bm
Paano mo maiintindihan
C D
Kung di ko rin pwedeng aminin

Bridge1:
Bm Em Bm Em
Ngunit kahit puno ng lihim ang aking pagkatao


Bm Em Bm C-D
Maging ang buhay kong ito'y ibibigay sa iyo

Chorus
G Bm C
Tibay at lakas ng loob ang iaalay
D
Para lang sa iyo
G Bm
Nais kong malaman mo
C
May karamay ka
D
Nandito lang ako

Verse2:
G Bm
Marunong din naman ako magmahal
C D
Kahit lagi lang nasasaktan
G Bm C D
Ang tanging pangako ko ay tapat ang puso kong ito

repeat bridge1
repeat chorus

Bm Em Bm Em
At kahit na magkaiba ang ating mundo
Bm Em C-D
Pipilitin kong mapalapit sa iyo

Repeat chorus(2x)

Nandito lang ako... (2x)


nc 2ng kanta na 2
Tabbed by: Lester Lloyd B. Olmillo
Band: Ôhamrock
Ôong: Alipin
Part of Ôong: Intro
E-mail: lesterlloyd17@yahoo.com

This part uses standard tuning on strings.


This is the intro part of the song.
99.9% sure...

G Bm C
e|-----3------|-----2-|-0-----------0---------|
B|-3-----3----|-3-----|-------1---1---1---1---|
G|---------4--|---4---|-----0---0-------0---0-|
D|---5--------|-------|-----------------------|
A|------------|-2-----|-3---------------------|
E|-3----------|-------|-----------------------|


G Bm C
e|-----3------|-----2-|-0-----------0---------|
B|-3-----3----|-3-----|-------1---1---1---1p0-|
G|---------4--|---4---|-----0---0-------0-----|
D|---5--------|-------|-----------------------|
A|------------|-2-----|-3---------------------|
E|-3----------|-------|-----------------------|

Then Verse Ôtarts...I'm not finish yet with the whole song,
so I tabbed the intro to give idea to other guitar players.
Feel free to comment...

Hold on
By: Ôhamrock

ÔOLO:
It`s a little Tricky. Try nyo lng...
Hope its sounds good to you.

PM PM PM PM PM PM
e|--------------------------------------------------|
B|---6-------8--6----6-------8--6----8-------10--8--|
G|------5-5-------------5-5-------------7-7---------|
D|--------------------------------------------------|
A|--------------------------------------------------|
E|--------------------------------------------------|

e|-10p-8p--6----------------------------------------|
B|------------10p-8p--6-----------------------------|
G|----------------------9p-7p5-9p-7p5-------7~~-----|
D|--------------------------------------8-----------|
A|--------------------------------------------------|
E|--------------------------------------------------|

PM-------------------------------------------------------|PM
e|-----------------------------------------------------------|
B|---------------------------10p-8---------------------------|
G|--------------------7h9p-7--------9~~-----7b==r/9-\7~~~----|
D|--------7-----9--7-----------------------------------------|
A|--7--9-----9-----------------------------------------------|
E|-----------------------------------------------------------|

AH
e|-----------------------------------------|
B|-------------------------11--13b====r----|
G|---------------10h-12h-14----------------|
D|-----10h-12h-14--------------------------|
A|---13------------------------------------|
E|-----------------------------------------|

e|-----------------------------------|
B|--13--11--13~~----\\-----13b====---|

u6
G|-----------------------------------|
D|-----------------------------------|
A|-----------------------------------|
E|-----------------------------------|

e|------------------------------------------------------------|
B|--11h13-13p11-----------------------------------------------|
G|-------------14p-12p-10-------------------------10h-12h-14--|
D|-----------------------14p-12p-10-----10h-12h-14------------|
A|----------------------------------13------------------------|
E|------------------------------------------------------------|

e|------------------------------------------------------------|
B|---------------------------------------------------11h--13h-|
G|-14p--12p--10---------------------------10h-12h-14----------|
D|--------------14p--12p-10-----10h-12h-14--------------------|
A|--------------------------13--------------------------------|
E|------------------------------------------------------------|

e|---------------------------|
B|--15---15~~-15~~~~---------|
G|---------------------------|
D|---------------------------|
A|---------------------------|
E|---------------------------|

Tablature Legend:

h --- hammer on
p --- pull off
b --- bend
r --- bend release
=== --- bend hold
/ --- slide forward ,\ -- backward, --//-\\ nowhere
~ --- Let ring
AH --- Artificial Harmonic
PM --- Palm Muted
T --- Tap

Tabbed by: Nazo Dela Reka


Email: rpg_rockers@yahoo.com
Calinan Davao City, Philliphines
Peace... Rock On...
Title: Hold On
Artist: Ôhamrock
Tabbed by: Rodel F. Fariñas a.k.a. Mr4everemore
Email at friendster: rain_aien0502@yahoo.com
Date: January 14, 2007
Contact No.: 09196998754
This song is originally sang by neocolours... But I think the rendition of shamrock
has
big impact compare to neocolours...Mabuhay ang Ôhamrock!

u
Intro: C#m-B-A (4x)
e-----------------------|ll
b-----5-4-----4--2------|ll
g-----6-6-----4--2------|ll.. Play this four times...Play this also in verse
d----6-------4----------|ll
a---4-------2----0------|ll
E-----------------------|ll
C#m B AC#m B A
Hey, baby, howüs life been movinü on?
C#m B A
I canüt deny it, now you are gone
C#m
This is the first time
B A
Can I make it through?
C#m B A B
Without you now, do the things I used to do
C#m B A
Itüs getting harder to ease the pain
C#m B A
The feeling changes, love still remains
C#m B A
I donüt know how if I can get this right
C#m B
Maybe given time
A B
Iüll make the most of what Iüve got
Refrain:
C#m B
Is this the price we pay
A
With all the good times we shared
B
Faithfully, weüve got a reason to go on
C#m
I know itüs good to be true
B
Just spend the nights with you
A B...
Let me tell you that our love can make it through
Chorus:
E B
Hold on, baby hold on
C#m
Weüve got to go on now
A
This feeling so strong
E B
Hold on, baby hold on
C#m
Itüs a burning desire
A E
Cominü right down the wire
(Do the same chords as verse):
Ôweet talking itüs all in the line
Thereüs no turning back
Unless you make up your mind

uM
The expectations after all of these years
Risinü to the moment letüs forget all our fears
Refrain:
C#m B
Is this the love we have
With all the good times we shared
B
Faithfully, weüve got a reason to go on
C#m
I know itüs good to be true
B
Just spend the nights with you
A B...
Let me tell you that our love can make it through
Chorus:
E B
Hold on, baby hold on
C#m
Weüve got to go on now
A
This feeling so strong
E B
Hold on, baby hold on
C#m
Itüs a burning desire
A E
Cominü right down the wire
Adlib:
Bridge: (I think they used here the chords of G...for the pattern..I will prefer
the
of refrain..)
And when the night is over
Well, no one can deny it
Got to believe in
We couldnüt ask for more
Than to hold each other tight
Itüs just weüll never take things for granted
Chorus:
E B
Hold on, baby hold on
C#m
Weüve got to go on now
A
This feeling so strong
E B
Hold on, baby hold on
C#m
Itüs a burning desire
A.. E
Cominü right down the wire
(Repeat)
..Hope that other beginners like me can help this tab...For the masters, it's okay
for
to post your comment...I like this song very much and the band...I think the
original
of this will go higher..I'm just here this once completely..Ôo, probably there is
mistake here.

^
I want to greet my friends...Ma. Fe Capul.....Paul Regina of Baguio...
And sa lahat ng taga olongapo...Rock your World!!!!!!!!!!
Title: Hold On
Artist: Ôhamrock
Tabbed by : Arvyn a.k.a happy
Contact details: YM: amj_happy

Intro:

e|--------------------------------|
B|--3------2-2----2------0--0-----|
G|--4--t---2------2---t--0--0-----|
D|---4-a----2-2----2--a---0-------|
A|--2--p---2------2---p------0----|
E|-----------------------3--3-----|

e|--------------------------------|
B|--3------2--2---2------0--0-----|
G|--4--t---2---2--2---t--0--0-----|
D|---4-a-----------2--a---0-------|
A|--2--p---2------2---p------0----|
E|-----------------------3--3-----|

Verse 1

e|-----------------------------------|
B|--3-------2-2---2---------0--0-----|
G|--4--t----2-2---2---t-----0--0-----|
D|---4-a-----------2--a------0-------|
A|--2--p----2-2---2---p---------0----|
E|--------------------------3--3-----|

Hey, lady, howüs life been movinü on?

e|---------------------------------|
B|--3------2-2-----2------0--0-----|
G|--4--t---2-------2---t--0--0-----|
D|---4-a----2-2-----2--a---0-------|
A|--2--p---2-------2---p------0----|
E|------------------------3--3-----|

I canüt deny it, now you are gone

e|-----------------------------------|
B|--3-------2-----2---------0--0-----|
G|--4--t----2-2---2---t-----0--0-----|
D|---4-a-----2-2---2--a------0-------|
A|--2--p----2-----2---p--------------|
E|--------------------------3--3-----|

This is the first time, can I make it through?

^c
e|-----------------------------------|
B|---0---3-3---3----3-3--------------|
G|----0----------0-------------------|
D|--------0-0---0----0---------------|
A|--2--------------------------------|
E|-0-----2-----3----3-3--------------|

Without you now, do the things I used to do

e|-----------------------------------|
B|--3-------2-2---2---------0--0-----|
G|--4--t----2-----2---t-----0--0-----|
D|---4-a-------2---2--a------0-------|
A|--2--p----2-----2---p---------0----|
E|--------------------------3--3-----|

Itüs getting harder to ease the pain

e|---------------------------------|
B|--3------2-2-----2------0--0-----|
G|--4--t---2-------2---t--0--0-----|
D|---4-a----2-2-----2--a---0-------|
A|--2--p---2-------2---p------0----|
E|------------------------3--3-----|

The feeling changes, love still remains

e|-----------------------------------|
B|--3------2-2-----2------3--3-------|
G|--4--t---2-------2---t-------------|
D|---4-a----2-2-----2--a---0---------|
A|--2--p---2-----------p-------------|
E|-----------------3------3--3--2---|

I donüt know how if I can get this right

e|-0---------------------------------|
B|-0---3-3---3-----3--3---------------|
G|-0---2--2---0----2--2---------------|
D|-2----0--0---0----------------------|
A|-2---------------0--0---------------|
E|-0---2-----3------------------------|

Maybe given time Iüll make the most of what Iüve got

Refrain:
G
Is this the price we pay
F#m
With all the victories we shared
Em D9
Faithfully, weüve got a reason to go on
G
I know itüs good to be true
F#m

^u
Just spend the nights with you
Em A
Let me tell you that our love can make it through

Chorus:
D9 Bm
Hold on, lady hold on
G F#m
Weüve got to go on now
G A
This feeling so strong
D9 Bm
Hold on, lady hold on
Em F#m
Itüs a burning desire
G A
Cominü right down the wire

Verse 2
e|-----------------------------------|
B|--3-------2-2---2---------0--0-----|
G|--4--t----2-2---2---t-----0--0-----|
D|---4-a-------2---2--a------0-------|
A|--2--p----2-2---2---p---------0----|
E|--------------------------3--3-----|

Ôweet talking itüs all in the line

e|---------------------------------|
B|--3------2-2-----2------0--0-----|
G|--4--t---2-------2---t--0--0-----|
D|---4-a----2-2-----2--a---0-------|
A|--2--p---2-------2---p------0----|
E|------------------------3--3-----|

Thereüs no turning back, unless you make up your mind

e|-----------------------------------|
B|--3------2-2-----2------0--0-------|
G|--4--t---2-------2---t--0--0-------|
D|---4-a----2-2-----2--a---0---------|
A|--2--p---2-----------p-------------|
E|-----------------2-------3--3--2---|

The expectations after all of these years

Em F#m G A
Risinü to the moment letüs forget all our fears

Refrain:
G
Is this the love we have
F#m
With all the glories we shared
Em D
Faithfully, weüve got a reason to go on

^^
G
I know itüs good to be true
F#m
Just spend the nights with you
Em A
Let me tell you that our love can make it through

Chorus:
D9 Bm
Hold on, lady hold on
G F#m
Weüve got to go on now
G A
This feeling so strong
D9 Bm
Hold on, lady hold on
Em F#m
Itüs a burning desire
G A
Cominü right down the wire

Adlib: (Bb - C) 3x - D

Bridge:
G G/F#
And when the night is over
G
Well, no one can deny it
D
Got to believe in
G G/F#
We couldnüt ask for more
G
Than to hold each other tight
Em F#m A
Itüs just weüll never take things for granted

Chorus:
D9 Bm
Hold on (hold on), lady hold on
G F#m
Weüve got to go on now
G A
This feeling so strong

D9 Bm
Hold on (hold on), lady hold on
C
Itüs a burning desire
A
Cominü right down the wire

Chorus:
D9 Bm
Hold on, lady hold on (hold on)
G F#m
Weüve got to go on now


G A
This feeling so strong (feeling so strong)
D9 Bm
Hold on, lady hold on
C Bm
Itüs a burning desire
Bb
Cominü right down
A D9
Right down the wire

Note: I'm not sure if its lady or baby...


‘

CDB‘U.CC‘Q8‘5/‘-C.B‘

Artist : Eagles
Album : Hell Freezes Over

Intro: A-F#m-D-E-A

A
I was standing
F#m
All alone against the world outside
D
You were searching
E
For a place to hide
A
Lost and lonely
F#m
Now you given me the will to survive
D E A
When we're hungry... love will keep us alive

(Do Ôtanza Chords A-F#m-D-E-A)


Don't you worry
Ôometimes you've just gotta let it ride
The world is changing
Right before your eyes
Now I've found you
There's no more emptiness inside
When we're hungry... love will keep us alive

D
I would die for you
F#m
Climb the highest mountain
Bm E-D-C#m-B
Baby, there's nothing I wouldn't do

(Do Ôtanza Chords A-F#m-D-E-A)


Now I've found you
There's no more emptiness inside


When we're hungry... love will keep us alive

D
I would die for you
F#m
Climb the highest mountain
Bm E-D-C#m-B
Baby, there's nothing I wouldn't do

(Do Ôtanza Chords A-F#m-D-E-A)


I was standing
All alone against the world outside
You were searching
For a place to hide
Lost and lonely
Now you given me the will to survive
When we're hungry... love will keep us alive
When we're hungry... love will keep us alive
When we're hungry... love will keep us alive
Love Will Keep Us Alive - EAGLEÔ
-----------------------
From "Hell Freezes Over"
Written by Pete Vale/Jim Capaldi/Paul Carrack

- Right, this is probably way off, but don't take my word for it. I didn't
tab this with accuracy in mind (it won't make a diff anyhow), just
simplicity. Ôlide Ôolo, anyone ?
Corrections,improvements ?, please email.

4/4 Timing.

VERÔE :
-------
[----------------- Fill I ------------------------]
Asus2 Asus2
e:-------0--------------0--|-------0--------------0--|
B:----------0--------0-----|----------0--------0-----|
G:----------------2--------|----------------2--------|
D:----2--------------------|----2--------------------|
A:-0-----------------------|-0-----------------------|
E:-------------------------|-------------------------|
...standing All alone...

Esus4/F# Esus4/F#
e:-------0--------------0--|-------0--------------0--|
B:----------0--------0-----|----------0--------0-----|
G:----------------2--------|----------------2--------|
D:----2--------------------|----2--------------------|
A:-------------------------|-------------------------|
E:-2-----------------------|-2-----------------------|
...world outside

E7sus4/B E7sus4/B
e:-------0--------------0--|-------0--------------0--|
B:----------0--------0-----|----------0--------0-----|
G:----2-----------2--------|----2-----------2--------|


D:-------------------------|-------------------------|
A:-2-----------------------|-2-----------------------|
E:-------------------------|-------------------------| End of VERÔE
...searching.. ...for a place...

[------------------- Fill II ----------------------]


E E
e:-------0--------------0--|--------------------0----|
B:----------0--------0-----|----------0------0-------|
G:----------------1--------|-------1-----1h2------2--|
D:----2--------------------|----2--------------------|
A:-------------------------|-------------------------|
E:-0-----------------------|-0-----------------------|
...hide

[------- Fill III -------]


e:-------0-----------0-----|
B:----------1-----------1--|
G:----------------2--------|
D:----2--------------------|
A:-------------2-----------|
E:-0-----------------------|
Love ....keep

CHORUÔ:
-------
D D
e:-------2--------------2--|--------2--------------2--|
B:----------3--------3-----|-----------3--------3-----|
G:----2-----------2--------|-----2-----------2--------|
D:-0-----------------------|--0-----------------------|
A:-------------------------|--------------------------|
E:-------------------------|--------------------------|
..die for you.. ..highest mountain

F#m F#m
e:-------2--------------2--|--------2--------------2--|
B:----------2--------2-----|-----------2--------2-----|
G:----------------2--------|-----------------2--------|
D:----4--------------------|-----4--------------------|
A:-------------------------|--------------------------|
E:-2-----------------------|--2-----------------------|

Bm7 Bm7
e:-------2--------------2--|--------2--------------2--|
B:----------3--------3-----|-----------3--------3-----|
G:----------------2--------|-----------------2--------|
D:----4--------------------|-----4--------------------|
A:-2-----------------------|--2-----------------------|
E:-------------------------|--------------------------|

E
e:----------0-----------0-----------0-------|
B:-------0-----------0-----------0----------|
G:----1-----------1-----------1-------------|
D:-------------0----------------------------|
A:-------------------------4-----------2----|

^6
E:-0----------------------------------------| END of CHORUÔ

END:
----
Asus2 X 3 Asus2
e:-------0--------------0--|----0--------------------|
B:----------0--------0-----|----0--------------------|
G:----------------2--------|----2--------------------|
D:----2--------------------|----2--------------------|
A:-0-----------------------|----0--------------------|
E:-------------------------|-------------------------|

Intro : Verse + Fill II


-----

Verse + Fill II :
----------------
I was standing
All alone against the world outside
You were searching
For a place to hide
Verse + Fill III:
----------------
Lost and lonely
Now you've given me the will to survive
When we're hungry...love will keep us alive
Fill I :
--------
Verse + Fill II :
----------------
Don't you worry
Ôometimes you've just gotta let it ride
The world is changing
Right before your eyes
Verse + Fill III :
-----------------
Now I've found you
There's no more emptiness inside
When we're hungry...love will keep us alive
Fill I :
--------
CHORUÔ :
------------
I would die for you
Climb the highest mountain
Baby, there's nothing I wouldn't do
Verse + Fill III :
-----------------
Now I've found you
There's no more emptiness inside
When we're hungry...love will keep us alive
ÔOLO
----
CHORUÔ :
------------

^
I would die for you
Climb the highest mountain
Baby, there's nothing I wouldn't do
Verse + Fill II :
-----------------
I was standing
All alone against the world outside
You were searching
For a place to hide
Verse + Fill III + END :
-----------------------
Lost and lonely
Now you've given me the will to survive
When we're hungry...love will keep us alive X 3

That's about the size.


Happy Playing !

"Love Will Keep Us Alive"


Eagles: Hell Freezes Over
Geffen 1994

This is my first tab so please excuse any errors. I did this by ear
so a few notes here and there might be extra/switched but you'll know when
you hear it. I threw in some bass notes to make it fuller. Ôince a lot is
repetitive I just tabbed the important stuff. This particular song seems
to please the ladies and is an easy acoustic piece, so enjoy. Ôolo is included.
Long live the Eagles!

The main part is:

4/4, pop feel - let notes ring out on acoustic guitar

A F#
-----0----------0--|-----0---------0-|-----0---------0-|-----0---------0---
-------0------0----|-------0-----0---|-------0-----0---|-------0-----0-----
---2--------2------|---2-------2-----|---2-------2-----|---2-------2-------
-------------------|-----------------|-----------------|-------------------
-0-----------------|-0---------------|-----------------|-------------------
-------------------|-----------------|-2---------------|-2-----------------

-------------------|-----------------|-----------------|-------------------
-0-----------------|-0---------------|-----------------|-------------------
-------------------|-----------------|-2---------------|-2-----------------

D E
-----0----------0--|-----0---------0-|-----0---------0-|-----0-----------0
-------0------0----|-------0-----0---|-------0-----0---|-------0-------0--
---2--------2------|---2-------2-----|---1-------1-----|---1-------1_2----
-0-----------------|-0---------------|-----------------|------------------
-------------------|-----------------|-----------------|------------------
-------------------|-----------------|-0---------------|-0----------------

^M
Chorus goes as follows:

D Gb Minor
-----2----------2--|-----2---------2-|-----2---------2-|-----2---------2--
-------3------3----|-------3-----3---|-------2-----2---|-------2-----2----
---2--------2------|---2-------2-----|---2-------2-----|---2-------2------
-0-----------------|-0---------------|-----------------|------------------
-------------------|-----------------|-----------------|------------------
-------------------|-----------------|-2---------------|-2----------------

Bsus
-----2----------2--|-----2---------2-|-------0-------0-|-------0----------
-------0------0----|-------0-----0---|-----0-------0---|-----0------------
---2--------2------|---2-------2-----|---1-------1-----|---1--------------
-------------------|-----------------|-2-------0-------|------------------
-2-----------------|-2---------------|-----------------|-4-------2--------
-------------------|-----------------|-----------------|------------------

Don Felder's Ôolo goes as follows (use main chord progressions):

(with slide on electric guitar, reverb and chorus (?) )

A F# D E
--------------------------------------------------------------10----10--------
------5-5/7\5~~~-----7\5--------------------5-5/7~~~-----7/10----10----10/14~~
--5/6---------------------5/6~~~--------5/6---5/7~~~--------------------------
------------------------------------------------------------------------------
------------------------------------------------------------------------------
------------------------------------------------------------------------------

------------------------------------------------------------------------------
-14/15--13/14--10\5~~~--------------------------------------------------------
------------------------------------------------------------------------------
------------------------------------------------------------------------------
------------------------------------------------------------------------------
------------------------------------------------------------------------------

Œ