You are on page 1of 10

Bohemian Rhapsody for Classical Guitar (TAB)

Intro:

-5--5--5--5---5--5--5--5--5--5-----7----4--4--4--5--4-------

-7--7--7--7---7--7--7--7--7--7-----7----5--5--5--7--5-------

-9--9--9--9---9--8--8--8--9--8--6--8----7--7--7--7--7-------

------------------------------------------------------------

-------------------------------------------------------7--7-

------------------------------------------------------------

-5--5--5--5----------------------2------------------0-----------------------10----10-

-5--5--7--5--7--5----2--2--2--2----2-------2--2--3--2--2---10--------10--12----10----

-6--6--7--6--7--6----2--2--2--2------2--2--0--0--4--0--2---11-----11-----12----11----

-------------9--7----4--4--4--4---------4--------5---------12--12--------------------

-------------------------------------------0-----------------------------------------

---------------------2---------------------------------------------------------------

2x

-----------------9--0--0--2-----0--2/4-||-6--6--5\--4--4--5\-||

-7--7--7--7---7-----0--------3--0------||-6--6--5\--4--4--5\-||

-7------------------1------------------||-7--7--6\--5--5--6\-||

-7-------------------------------------||--------------------||

---------------------------------------||--------------------||
-7------------------0------------------||--------------------||

-2--2--2--2--0h2p0---5---5--5--5--5--4---------

-3-------------------2---4--4--4--4-----3------

-2-------------------2---------------4--4--1/2-

-0-----------------------4--4--4--4------------

-------------3-----------3---------------------

-------------------------------------0---------

Verse:

2x 2x

||-----------2-------||----------4----2---||----------0---------||----7-

||--------2------5---||-2-----2---------2-||--0h2--3-----3--2-0-||------

||-2----2----------2-||-----2-------2-----||-------0-----0----1-||-7h9--

||----2--------2-----||---4------4--------||------------------2-||------

||-0---------0-------||-------------------||-------2-----2------||------

||-------------------||-2-----------------||--------------------||------

-----------2---------------------4----2----0--5--5--5--5--5------------------0-

--------2------5---2h5--2-----2---------2-----7--------7----7--2h3p2-0----2--1-

-2----2---------------------2-------2---------7-----7-----7----2----------2--2-

----2--------2---2--------4------4-----------------------------4--------4------

-0---------0---------------------------------------------------0---------------
------------------------2---------------------7-----------6------------------0-

-----------2--2------------0---2h3----------2--

-0---------3-----3------------------3----3-----

-0---------2-------2----2--------------4-------

-2--4--2---0---------0----------------4--------

---------------------------4--------2--------2-

-3--2------------------------------------------

-3--2-2--0---0----------------2-2--3--3--5--3--2-----0h2--5------2-

-0-----------0----------5--5----------2-----------3------------2---

-0----------------2--2-----2----2-----2--------2-------------2-----

-2-------1---0------------------------------0----------------------

----------------4----0-----0----0-----0-------------------4--------

-------------------------------------------------------------------

--------------------------------------10----10----10---10-

-3-----------------------------10--12----10-----9----8----

-----4--2-2--3--5--3--------11-----12----11----10----9----

---4---------5--------0--12-------------------------------

-2-----------5--------------------------------------------

-------------3--------------------------------------------

repeat verse until *


-7-----7---9/10---7--9/10---12--------12--14--15-17-19---17-15-14-15-14h15p14p12-

-7--7--7----------7----------0--0--12--0-------------0---------------------------

-7--7--7----------7----------0--0------0-------------0---------------------------

-9--9--9----------7----------9---------------------------------------------------

-9-----9----------9---------10---------------------------0-----------------------

-7-----7----------7----------0--0------------------------------------------------

-14-12-10-12-10h12p10p9--9--10--9h10p9----9------------2------------2-3-5-

---------------------------------------12---12-10-10---3------2-3-5-----2-

-------------------------------------------------------2--2-4-----------2-

-------------------------------------------------------0------0---------2-

-0-----------------------0-------------------------0--------------------4-

--------------------------------------------------------------------------

-5-----------2-3-5--7------9/10--7--9/10-7--9/10--12-------------12-------------

-2-----2-3-5--------7------------7-------7---------0------5-7-8------8----------

-2-2-4--------------7---7--------7-------7---------0--------------9--5--5--5--5-

-2------------------7---7--------7-------7---------9----------5------5--5--5--5-

-4------------------9---9--------9-------9--------12---7--6---5-----------------

--------------------7---7--------7-------7---------0----------------------------

-8--8--8----

-5--5--5----

-5--5--5--5-
------------

----------0-

-8--7--6----

-------------------------------------------------------------------

-----4--4--4--4--4--4--4--6--4--4--3--3--4--4--6--6--4--4--3--4--4-

-----5--5--5--5--5--5--5--6--5--5--4--4--5--5--6--6--5--5--4--5--5-

-6---6--6--6--6--6--6--6--6--6--6--6--6--6--6--6--6--6--6--6--6--6-

-------------------------------------------------------------------

-4-----------------------------------------------------------------

--4--------4-----------------4--------------------------2--2--2--2-----3--4-

--6--4--4--6--4--4--3--3--4--6--4---5--5--3--5---6--6---2--2--2--2--4--4--4-

--6--5--5--6--5--5--4--4--5--6--5---5--5--4--5---4--4---3--3--3--3--3--3--5-

-----6--6-----6--6--6--6--6-----6---5--5--4--5---5--5---------------5-----6-

--------------------------------------------------------------------6--6--6-

------------------------------------3--3--3--3---3--3---2--2--2--2--------4-

-11-11-12p11-------------11-11-11-12p11---------------11-11-12-11-9-7-6---4--4-

-------------------------------------------------------------------------------

-------------------------------------------------------------------------------

------------------------------------------------------------------------7------

-------------11-11-12p11----------------11-11-12p11---11-11-12-11-9-7-6--------

-------------------------------------------------------------------------------

Harm H H
---------------------------------------------------7--5-5--4--5--7-7--5--4-4--5-

--------------0------------------------------------0--7-7--6--7--0-0--7--6-6--7-

-----11--------------------------------------------0--7-7--4--7--0-0--7--4-4--7-

-(7)----(12)-----------8--7-7--6--7--8--7-7--6--7--0-------------0-0------------

-----------------(12)------------------------------5-------------5-5------------

-----------------------6--5-5--4--5--6--5-5--4--5-------------------------------

mute

-7--7/9---5--5-5--4--4-4-4--5------------10----10---10---10---------------------------------

-0--0-----7--7-7--3--3-3-3--2--10-10--12----10----9----8-----6--5-5--4--5--6-6--5-5--4-4--5-

-0--0-----7--7-7--4--4-4-4--2---------12----11---10----9-----7--6-6--5--6--7-7--6-6--5-5--6-

-0--0-------------2--2-2-2--2--------------------------------8--7-7--6--7--8-8--7-7--6-6--7-

-5--5-------------2--2-2-2--0---------------------------------------------------------------

-------------------------------------------------------------6--5-5--4--5--6-6--5-5--4-4--5-

4x

||---------------------10-10-10-||---5------------------5---9--10-

||--------7-5-7-8-7-5--10-10-10-||-----6----------6--5--6--10---7-

||--------7-6-7-9-7-6--11-11-11-||-5-----8--6--5--6--5--5---9---7-

||------------------------------||----------8--6--6--5--7-------0-

||-0/5-0------------------------||----------8--6--4--3--8---0-----

||------------------------------||----------6--4------------------

---------------------5-5--7-5--3--2--0--5--10-10--10--10---9--9--9--9--14--14-

---------------------7-7--8-7--5--3--2--5---7--7---0---0---9--9--9--9---------

-2-2--4p2--2-2--4p2------------------2--6---7--7---0---0--10-10-10-10--14--14-

---------------------0-0--0-0--0--0-----7---0--0------------------------------
-------------------------------------0--0------------------------------16--16-

-----------------------------------------------------------9--9--9--9--14--14-

8x

-3--3-3-3--2--2--7--7-7-7--5--5--||-17-17-17-||

-2--2-2-2--2--2--5--5-5-5--5--5--||-14-14-14-||

-2--2-2-2--2--2--6--6-6-6--6--6--||-14-14-14-||

-2--2-2-2--2--2--7--7-7-7--7--7--||-14-14-14-||

-0--0-0-0--0--0--0--0-0-0--0--0--||-0--0--0--||

---------------------------------||----------||

3x

||-2------------||--0-----------------------3-3-3--2-2-2---------------

||-3----------2-||3-0---------0-2-0---------2-2-2--2-2-2--5-5-3--3---3-

||-2----0-2-4---||--1--1---2-------------2--2-2-2--2-2-2--2-2-2--2---2-

||-4--4---------||--2--------------------2------2------2--2---4--4-4-4-

||-0------0-----||--2--------------------0------0------0---------------

||--------------||--0----0----0------0---------------------------------

-3--7-----------2---3-3-3--3-3-3--3-3-3--2--0-------------------3----3---3--2--2-

-3-----3--------0------------------------2-------------------0--0----0---0--0--0-

-4-----4--------0------------------------2-------------------0--0----0---0--0--0-

-5-----5--5--4--2------------------------2-----2h4p2---------2-------------------

-5-----5--------2------------------------0--0--0------4p2p0--2-------------------

-3-----3--3--2--0---0------0------0--------------------------0-----0---0---0-----

-2--0-------------------------------------------------------------------------
-2-------------------3--3-3-3--3/5-----3--3-3-3--5--3---2---3-----------------

-2-------------------0-----------------0--------------------2-------0--2--2h4-

-2---------2--4p2----2-----------------2--------------------4--4-0------------

-0--0--2h4--------4--2---------0----0--2---------0----0----------------0--0---

---------------------0--0--------------0--0-----------------------------------

-------------------------------------0----------------0---------------------

-3----------------3-------------2-3--0---------0--2-4-----------------------

-2-------2h4p2----2-------2--4-------1--1----2-------------0--2--4--2--4--5-

-4--4-0-----------4--4-0-------------2------------------3-------------------

---------0-----0----------0-----0----2------------------------0--2--0--2--3-

-------------------------------------0----0----0----0---1--3----------------

-----------------------------------------------------------------------2---3-

----------------------------------------------------------2-3p2h3-5-3-5--5---

-------------------------7-8---------------------0-2--2h4--------------------

--------6----6--8-6-8-10-----------0---0-2-0-2-3-----------------------------

-6h8h10---10-----------------0h2h3---3----------------0----------------------

-6---------------------------3-----------------------------------------------

-----------------------------------0---
-------------------------------2-------

----------------------0---0--2---2---2-

-------0---0--2h4p2-4---4--------------

-0h2h4---4----------------0------------

-5-------------------------------------

Outro:

-2------2--5-------------5--------------7--2-------2---------------2h3-2-5-

-3----3----3--5----2--5--2-----------7--7--2--5-3--2---5--3--2---------3-7-

-2--2------2--2--2-------2---7-----7----7--3----4--3------4--2-0-------2-5-

-0---------0-----------------9--9-------9--4----4--4------4------4-2---0---

--------------4----------4---9----------9--4----2--4------2--0-------------

-----------------------------7----------7--2-------2-----------------------

-4-----4--5---------------------------------3-2---------2----2----0-2-----

-6--7-----2----------0--------0-2-3-------3-----3------------3--3-----3---

-4-----4--2-------2--0-----0--0-2-2-----2-----------2-2---2--4--------3-3-

-6--7-----4----4-----0--0---------0--4------------4---4---4--4--------5---

-4--4--------4------------------------------2---2------------2----2---5---

----------2----2-----3-----3------------------------2-----------------3---

-2-0-0--------------------------9----9----------------7-9--7-9--5------5-

-0-----3-3-0--2--3--------10-12---12---10--------10---9----9----5----5---

-0---------------------11----12---12---11-----11-----10---10----6--6-----

-0---------------0--12-----------------12--12----------------------------
-0-----------------------------------------------------------------------

----------------------------------------------------------------5--------

-5--3--3--2--2-------2--5--3--3--2-----------0----0-------------------0-----

-5-----------4----4-----4-----------7\4-------------------------------2-----

-------------4--4-------2---------------4\2--1--1---1--2--2--1--1--0--2---1-

-------------------------------------------------------2-----2-----2------2-

-3-----------2-----------------------------------------4-----2-----1------2-

---------------------------------------------0------------------------2---0-