- “Canon

In D” Tab v.6
Song by Johann
Pachelbel
Canon in D ~ Guitar
Music By Pachelbel ~
Originally transcribed by "Jawmunji" - YouTube ~
TAB translation by ViDominic ~
* I Just want to note that: I did NOT Tab this from my own work.
I merely transcribed this tab to .txt format from the sheet music I
received from "Jawmunji", via YouTube.
The reason being that, His is by far the best guitar transcription I've heard to date.
And I couldn't locate a .txt format of this piece.
I have made some minor changes to the song,
but ALL Acknowledgments or praise for this rendition belong to him.
---------------* Listen to the original song, Alot! Listen all the way through multiple times a day.
* Let ALL Notes ring out as long as possible, Especially Bass notes.
---------------Dropped "D" Tuning (D.a.d.g.b.e)
---------------Legend:
|--| = Measure
/ = slide up to note
\ = slide down to note
// or \\ = Slide continues into/begins next measure
= Hammer on/Pull Off to note (Ex.----)
---------------Slow - 75bmp
e|--------2--------|-------------------|-------------------|-------------------|
b|------3-------2--|--------3-------2--|--------0-------3--|--------3-------2--|
g|----2-------2----|------4-------2----|------0-------2----|------4-------2----|
d|--0-------2------|----4-------4------|----0-------4------|----5-------2------|
a|--------0--------|--2----------------|-------------------|----------0--------|
D|-----------------|---------4---------|--5-------0--------|--5----------------|
e|--2-------0--------|-------------------|---------------------|-------------------|
b|--------3-----2----|--3-------2--------|--0------------------|--0-----0-2-----2--|
g|------2-----2------|------4-------2----|------0----2---------|------0-------2----|
d|----0-----------2--|----4---4---4---4--|----0---0-------4----|----0-------2------|
a|----------0--------|--2----------------|--------------5---5--|----------0--------|
D|--0----------------|----------4--------|--5--------0---------|--5----------------|
e|--2-------0--------|-------------------|-------------------|-------------------|
b|--3---3---2---2----|--3-------2--------|--0----------------|--0-----0-2-----2--|
g|----2-------2------|--4---4---2---2----|--0---0---2--------|--0---0---2---2----|
d|--------0-------2--|----4-------4---4--|----0---0-4---4----|----0-------2------|
a|----------0--------|--2-----2----------|------------5---5--|----------0--------|
D|--0----------------|----------4--------|--5-------0--------|--5----------------|
e|------2---5---3----|--2-------2--------|-------------------|-------------------|
b|--3---3---------2--|------3------------|--3---0---3--------|--3-------3---2----|
g|----2---2-----2----|------4-------2----|------0-------2----|------4-------2----|

d|--0---------2------|----4---4-----2----|----0---0---4---4--|----5---5---2---2--|
a|----------0--------|--2---------4---4--|--------------5----|----------0--------|
D|-------------------|----------4--------|--5-------0--------|--5---5------------|
e|-------------------|--------------5-7--|-------------------|-------------------|
b|--3-2-3------------|----3-2-0---7------|--8-7-5-8-7-5------|--0----------------|
g|------------2------|----------6--------|--------------7-6--|----2-0-----0------|
d|--------0-----2-4--|--0----------------|-------------------|--------4-2---4-2--|
a|----------0--------|--2----------------|-------------------|----------0--------|
D|--0----------------|----------4--------|--5-------0--------|--5----------------|
e|-------------------|-------------------|-------------------|-------------------|
b|-------------------|-------------------|-------------------|--------0----------|
g|--------0-2---2-0--|----4-2-0-2-0------|--0-----0----------|--0-------2-4-2-0--|
d|--0-2-4-----2------|--4-----------4-2--|----4-2---4-2-0-4--|----4-2------------|
a|----------0--------|--2----------------|-------------------|----------0--------|
D|--0----------------|----------4--------|--5-------0--------|--5----------------|
e|------2---0--------|----------2--------|--7-------5-----0--|--7-------5--------|
b|--------3-2---2----|--3----------------|------0-------7----|------0-----5------|
g|------2-----2---0--|------4-------2----|--------0----------|--------0-----6----|
d|----0--------------|----4---4---4---2--|----0-------0------|----0-----------7--|
a|-------------------|--2----------------|-------------------|-------------------|
D|--0-------0--------|----------4--------|--5-------0--------|--5-------0--------|

e
b
g
d
a
D

|--5-2-3-5-2-3-5---------0-2-3--|--2-----2----------------------|
|------------------0-2-3--------|----3-5---------0--------------|
|----------------2--------------|------------0-2---2-0-2---0-2--|
|-------------------------------|----------4-------------4------|
|--------------0----------------|-------------------------------|
|--0----------------------------|--2-----------4----------------|

e
b
g
d
a
D

|-------------------------------|----------------------0-2-3-5--|
|----0-----------------------0--|----0---0-2-3---0-2-3----------|
|--0---2-0---------------0-2----|--0---2-------2----------------|
|----------4-2-4-2-0-2-4--------|-------------------------------|
|-------------------------------|--------------0----------------|
|--5-----------0----------------|--5----------------------------|

e
b
g
d
a
D

|--2---0-2-0---0-----0-2-0------|-------------------------------|
|----3-------3---2-3-------3\2//|//3---2-3---------------3-2/3--|
|-------------------------------|----4-----------0--------------|
|-------------------------------|----------0-2-4---4-2-4--------|
|--------------0----------------|--2----------------------------|
|--0----------------------------|--------------4----------------|

e
b
g
d
a
D

|-------------------------------|-------------------------------|
|----3---0---------------0-2/3--|----3---3---0-2-3-5-3-2-3-0-2//|
|--4---6---2-0-2-0---0-2--------|--4---6---6--------------------|
|------------------4------------|-------------------------------|
|-------------------------------|--------------0----------------|
|--5-----------0----------------|--5----------------------------|

e
b
g
d
a
D

|--2-----0--2-----0--------0----|--------------------------------|
|//3--3--------3--2--2/-3----2--|--3-----2--3-----2--------------|
|--2--------------2-------------|--4--4--------4--2--2-----------|
|-------------------------------|--4--------------4-----5--4--2--|
|-------------------------------|--2-----------------------------|
|--0--------------0-------------|-----------------4--------------|

e |--------------------------------|--------------------------------|
b |--0-----------------------------|--0--0--------------------------|
g |--0--0--------0--2-----------2--|--0-----2--0--------2--0--------|

d |--0-----4--2-----4-----2--4-----|--0-----------4--2--------4--2--|
a |-----------------5--5-----------|-----------------0--------------|
D |--5--------------0--------------|--5-----------------------------|
e
b
g
d
a
D

|--------------------------------|-----------2-----2-----2--2-----------|
|-----3--2--3-----------0--2-----|-----3--5-----3-----3--------5--3--2--|
|-----------------2--2--------2--|--------------------------------------|
|--4-----------4-----------------|--4-----------------------------------|
|-----------------0--------------|--2-----------------------------------|
|--0-----------------------------|-----------------------4--------------|

e
b
g
d
a
D

|--------------------2--0-----2--|--3--------------------------|
|--0--0-----0--2--3--------3-----|-----3--------------------2--|
|--------2-----------------------|--------6--4--4--2-----2--2--|
|--------------------------------|--------------------2-----2--|
|--------------------------------|-----------------0-----------|
|--5--------------0--------------|--5--------------------------|

----------Slowly - 55bpm
----------e|--2-----2-2-3-2----|------------0------|--------0-2---0----|-------------------|
b|--3-------2-----5--|--3-----3-3---3-2--|--0---0---3---3----|--3-------------2--|
g|--2---2---2--------|--4---4---2--------|--0-0-------2---2--|--0-5-4-5-2---2----|
d|----0-----2--------|--4-4--------------|--0----------------|--0-------2-2------|
a|----------0--------|--2----------------|-------------------|----------0--------|
D|--0----------------|-------------------|--5-------0--------|--5----------------|
e|--------5-5-7-5-3--|--2-----2-2-3-2-0--|---------------------|--------------------|
b|--------7-7-8-7-5--|--3-----3-3-5-3-2--|--3------------------|--3--------2-----2--|
g|------7------------|--4---4------------|-----5-4-5-2----2----|--0--5-4-5-2---2----|
d|----0--------------|----4--------------|--------------4---0--|--0----------2------|
a|-------------------|--2----------------|---------------------|-----------0--------|
D|--0-------0--------|----------4--------|--5--------0---------|--5-----------------|
e|--------------7-------|------10----------9----|--7--------5---------|--7--------5--5------|
b|------7-10-10---10-8--|--7------7--7--|---------0--------7--|-------0---5----5----|
g|----7-----------------|----7------------------|-------7--------7----|---------0-6------6--|
d|----------------------|-----------------------|-----0--------0------|-----0-----7---------|
a|----------------------|-----------9-----------|---------------------|-----------0---------|
D|--0--------7----------|--9--------------------|--5--------0---------|--5------------------|
e|--2----------------|--------------------|--------------------|--0------------------------|
b|--3-----3-----2----|--3------------1----|--0-----3------3----|--0-0---|
g|--2---2-----2------|--4---4--------2----|--0---0---2------2--|--0---0---2----------------|
d|----0-----------2--|--4-4---4--------0--|--0-0--------4------|--------0-2----------------|
a|----------0--------|--2----------0------|--------------------|----------0----------------|
D|--0----------------|-----------4--------|--5--------0--------|--5------------------------|
And Thats it!

Sign up to vote on this title
UsefulNot useful