You are on page 1of 13

Tabbed by: metguitar

Email: metguitar@aol.com
Tuning: Drop-D one whole step down (low to high - CGCFAD)
As always, listen to the song for all the timings and strummings. The parts are all in
order. Have fun!!
Intro, clean w/ fingers
d|---------------------------------------------------------|
A|---------------------------------------------------------|
F|-----------------------------------------0-------0-------|
C|-9--7----4h5-4-----------4/2~--0h2h4---4---4---4--(4)/--|
G|----------------0--------------------2-------2-----(2)/--|
C|-5--5--0-0---0----0----0---------------------------------|
d|---------0--------|
A|-----------0------|
F|-------7-----7----|
C|-----7---------7--|
G|---5--------------|
C|-5----------------|
Verse 1
d|---------------------------------------------------------|
A|---------------------------------------------------------|
F|-----------------------------------------0-------0-------|
C|-9--7----4h5-4-----------4/2~--0h2h4---4---4---4--(4)/--|
G|----------------0--------------------2-------2-----(2)/--|
C|-5--5--0-0---0----0----0---------------------------------|
First and second ending
d|---------0--------|
A|-----------0------|
F|-------7-----7----|
C|-----7---------7--|
G|---5--------------|
C|-5----------------|

Third ending
d|-----+12--|
A|-----+12--|
F|-----+12--|
C|-7--------|
G|-5--------|
C|-5--------|

Pre-chorus, distortion w/ pick


d|---------------------------------------------------------------|
A|---------------------------------------------------------------|
F|--------/12-11~-------------6-7~---11-----7------------11~-/-|
C|--9--7---x---x---0--0--0-0---x--x----9------5----9--7----x-----|
G|--9--7--/10-9~--0--0--0-0---4-5~---9------5----9--7----9~--/-|
C|--9--7-----------0--0--0-0-0---------9------5----9--7-0-------|
.
d|----------------------------------------------------------|
A|----------------------------------------------------------|
F|--14~-14-14\-11~-11--11\9~-9~--11-----7-------------------|
C|--x---x--x---x---x----x--------9------5-------------------|
G|--12~-12-12\-9~--9--0-9\7~-7~--9------5----9-4-0-4--5-4-5-|
C|-(0)--------(0)-----0----------9------5----9-4-0-4-5-4-5-|
. . . . . . .
light pm
Chorus - Distortion, listen for strumming
d|-----------------------------------------------------------|
A|-12------8------3----------------------3-------------------|
F|-11------7------2-------------12-11~\--2-------------6-7~/-|
C|-9-------5------0---0--0-0----x--x-----0---0--0-0----x-x---|
G|-9-------5------0---0--0-0--0-10-9~-\--0---0--0-0--0-4-5~/-|
C|-9-------5------0---0--0-0--0----------0---0--0-0--0-------|
.
.
d|-----------------------------------------------------------|

A|-12------------------8------3------------------------------|
F|-11----6-6/7-7\6-6/7-7------2-------------12-11~---11--9---|
C|-9-----x-x---x---x---5------0---0--0-0----x--x-----9---7---|
G|-9-----4-4/5-5\4-4/5-5------0---0--0-0--0-10-9~----9---7---|
C|-9-------------------5------0---0--0-0--0----------9---7---|
.
Pre-verse 2, clean w/ fingers
d|--0----5p0-----------------------------------0--------|
A|--7--------7-----------------------------------0------|
F|--7----------7--------0-------0------------7-----7----|
C|--0-----------------4---4---4---(4)/-----7---------7--|
G|--0---------------2-------2-----(2)/---5--------------|
C|--0----------------------------------5----------------|
Verse 2 - same as verse 1
Pre-chorus 2 - same as pre-chorus 1
Chorus - same as the first chorus, except skip the last two chords and
head straight into the bridge
Bridge - Distortion
d|--------------------|
A|------------8-\-7---|
F|--6----4----7---7---|
C|--7----4----5---5---|
G|--4----2----5---5---|
C|------------5---5---|

X 1

Clean
d|--0--(0)--5p0------------0--0-0-0--0-0-0---------------------------|
A|--7-(7)------7------7-7-5--5-5-5--5-5-5--8--8--8-8-7-7--5-5-7-----|
F|--7--(7)--------7----7-7-6--6-6-7--7-7-6--7--7--7-7-7-7--7-7-7-----|
C|--0--(0)-------------0-0-7--7-7-7--7-7-7--5--5--5-5-5-5--5-5-5-----|
G|--0--(0)-------------0-0-0--0-0-0--0-0-0--5--5--5-5-5-5--5-5-5-----|
C|--0--(0)-------------0-0------------------5--5--5-5-5-5--5-5-5-----|
d|--0--0--0-0-0-0--0-0-0--|
A|--7--7--7-7-5-5--8-8-7--|
F|--7--7--7-7-7-7--7-7-7--|
C|--0--0--0-0-0-0--0-0-0--|
G|--0--0--0-0-0-0--0-0-0--|
C|--0--0--0-0-0-0--0-0-0--|

X 2

Third time
d|--0------5p0------------0--0-0-0--0-0-0---------------------------|
A|--7--7------7------7-7-5--5-5-5--5-5-5--8--8--8-8-7-7--5-5-5-----|
F|--7---7--------7----7-7-6--6-6-7--7-7-6--7--7--7-7-7-7--7-7-7-----|
C|--0---0-------------0-0-7--7-7-7--7-7-7--5--5--5-5-5-5--5-5-5-----|
G|--0---0-------------0-0-0--0-0-0--0-0-0--5--5--5-5-5-5--5-5-5-----|
C|--0---0-------------0-0------------------5--5--5-5-5-5--5-5-5-----|
Distortion kicks in:
d|-------------------------------------------------------|
A|--3--3--3-3-3-3--3-3-3---------------------------------|
F|--2--2--2-2-2-2--2-2-2------7---7---------7---11-12~-\-|
C|--0--0--0-0-0-0--0-0-0------x---x---------x---x--------|
G|--0--0--0-0-0-0--0-0-0--0-0-5-0-5---------5---9--10~-\-|
C|--0--0--0-0-0-0--0-0-0--0-0---0---0--0--0---0----------|
. .
.
.
.

Chorus - Distortion, listen for strumming


d|-----------------------------------------------------------|
A|-12------8------3----------------------3-------------------|
F|-11------7------2-------------12-11~\--2-------------6-7~/-|
C|-9-------5------0---0--0-0----x--x-----0---0--0-0----x-x---|
G|-9-------5------0---0--0-0--0-10-9~-\--0---0--0-0--0-4-5~/-|
C|-9-------5------0---0--0-0--0----------0---0--0-0--0-------|
.
.
d|--------------------------------------------------------------------|
A|-12-----------------8-----3---------------------3-------------------|
F|-11--6-6/7-7/12-12~-7-----2-------------12-11~\-2-------------6-7~\-|
C|-9---x-x---x----x---5-----0---0--0-0----x--x----0---0-0-0----x-x---|
G|-9---4-4/5-5/10-10~-5-----0---0--0-0--0-10-9~-\-0---0--0-0--0-4-5~\-|
C|-9------------------5-----0---0--0-0--0---------0---0-0-0--0-------|
.
.
d|----------------------------|
A|-12------------------8-\-7--|
F|-11----6-6/7-7\6-6~--7---7--|
C|-9-----x-x---x---x---5---5--|
G|-9-----4-4/5-5\4-4~--5---5--|
C|-9-------------------5---5--|
Outro - Distortion
d|---------------------------------------------------|
A|--3---(5)----8(7)---------------------------------|
F|--2----6-----7---------7---7---------7---11-12~-\-|
C|--0-----7-----5---------x---x---------x---x--------|
G|--0----0-----5-----0-0-5-0-5---------5---9--10~-\-|
C|--0-----------5-----0-0---0---0--0--0---0----------|
. .
.
.
.
Lead Fill - repeats every other time through the chord progression
during the A chord (x0765X)
d|--10-9-7-------------------|
A|---------10-8-77h8p7------|
F|----------------------97~-|
C|---------------------------|
G|---------------------------|
C|---------------------------|
Done!!
|
|
|
|
|
|
|
|

. palm mute
/ slide up
\ slide down
h hammer-on
p pull-off
~ vibrato
+ harmonic
x Mute note

Broken intro
I really have no clue how to write these... to be honest i dont really know how to read
them... But here is my best shot. Let me know what i am doing wrong with the song and
with the tabs. thanks
K all i have so far is the intro, I cant figure out the tuning of the guitar. So all
i do i Cappo in first fret. Doesnt seem to work with rest of song though
e|------6------------------------------------|
B|------6------------------------------------|
G|------8-9-8--6-------6---5--------5/6---6--|
D|---------------8--------8-----6--6----5---5|
A|1~~~~--------------/8----------------------|
E|-------------------------------------------|

e|-----9----------------------------8------------------|
B|---------9-9/11----9---------------------------------|
G|-------8-------------11--10---------8--8/10---8------|
D|------------------------------------------------11-10|
A|9------------------------------8---------------------|
E|-----------------------------------------------------|
e|----9-8-6----------------------------------|
B|----------6--------------------------------|
G|----------------6-5-------6---6--8/10--6---|
D|-----------------8-----/8---8--------------|
A|1~~----------/8----------------------------|
E|-------------------------------------------|
e|-----9----------------------------8-----------|
B|---------9-9/11----9--------------------------|
G|-------8-------------11--10---------8--8/10---|
D|----------------------------------------------|
A|9------------------------------8--------------|
E|----------------------------------------------|
brent (know_i_dont@hotmail.com <-- msn)
/ slide up
\ slide down
h hammer-on
p pull-off
~ vibrato
+ harmonic
x Mute note
Alter Bridge - In Loving Memory
Beautiful song.. thought it sounded cool too with chords alone
my first tab, feel free to comment..
Standard tuning
C
: 032010
G
: 320003
Am : 002210
F
: 003211
Em : 022000
(dunno1): 005343
(dunno2): 004232
Verse 1:
C
G
Thanks for all you've done
Am
F
i've missed you for so long, i can't believe you're gone
C
G
you still live in me
Am
F
i feel you in the wind, u guide me constantly
C
G
i never knew what it was to be alone.. no
Am
F
cause you were always there for me, you were always waiting

C
G
but now i come home and i miss your face so
Am
F
smiling down on me, i close my eyes to see
chorus:
C
G
and i know, you're a part of me
Am
F
and its your song, that sets me free
C
G
i sing it while i feel i cant go on
Am
F
i sing tonight, cause it comforts me
verse 2:
i carry the thing that reminds me of you
in loving memory of, the one that was so true
you were as kind as you could be
and even though you're gone,you still mean the world to me
i never knew what it was to be alone.. no
cause you were always there for me, you were always waiting
but now i come home and it's not the same no
it feels empty and alone, i can't believe you're gone
chorus
Bridge :
Am
F
G
i'm glad he set you free from sorrow
Em
Am
but i'll still love you more tomorrow
F
G
Em
and you'll be here with me still
Am
F
G
all you did you did with feeling
Em
Am
and you always found a meaning
F
G
and you always will
F
G
and you always will
Am
(dunno1) (dunno2)
C
and you always will

Chorus
by ktjl
kid_8@hotmail.com
In loving medmories intro

Intro/Verse
e-----------------------------------------------------------|
B--6--7p6---4--4h5p4-------------------2--2/4\2p00----------|
G---6----6---4------4---3-----------------------------------|
D---------6----------4----4-6h8p6p4--4----------------------|
A--4-4------2-2---------------------8--44-4/6/4-------------|
D-------------------------4---------------------------------|
e--------------6~~~--------9-7-6-6--7-6---------------------|
B-6--7p6---4-6--------------------------9~~~~---------------|
G--6----6---------------------------------------------------|
D--------6--------------------------------------------------|
A-4-4------2-4----------------------------------------------|
D--------------4----4-4-------------------------------------|

E-----4--------------1-----------------4---------9----------I
B-----4--------------1-----------------4---------9----------I
G-----6--------------3-----------------6---------11---------I
D-----6---6h8p6p4-4--3-----------------6---------11---------I
A-----4----------8---1---6h8p6p4-4-----4---------9----------I
D-----4--------------1----------8------4---6/8-8-9----------I

www.johnpetrucci.com
i actually found this online in a guitar pro format... ive converted it so that
i may share it here! here it is! the g3 version of glasgow kiss! enjoy!
E||---------------------------------------|
B||-----------7--------10--7--9--7--------|
G||--------9-----9------------------9-----|
D||-----9-----------9------------------9--|
A||--7------------------------------------|
E||---------------------------------------|

--------------------------------------|---------------------------------------|
-----------7--------------------------|-----------7--------10--7--9--7--------|
--------9-----9-----7--6-----------6--|--------9-----9------------------9-----|
-----9-----------9--------9--7--9-----|--9--------------9------------------9--|
--7-----------------------------------|-----7---------------------------------|
--------------------------------------|---------------------------------------|

--10--7--9--7-9-7---------------------------|
-------------------10--7--10-----10-----10--|
------------------------------9------7------|
--------------------------------------------|
--------------------------------------------|
--------------------------------------------|

---------------------------------------|--------------------------------------|
-----------7--------10--7--9--7--------|-----------7--------------------------|
--------9-----9------------------9-----|--------9-----9-----7--6-----------6--|
-----9-----------9------------------9--|-----9-----------9--------9--7--9-----|
--7------------------------------------|--7-----------------------------------|
---------------------------------------|--------------------------------------|

---------------------------------------|
-----------7--------10--7--9--7--------|
--------9-----9------------------9-----|
--9--------------9------------------9--|
-----7---------------------------------|
---------------------------------------|

--------------------7--10--7--12--9------|
-----------------8-------------------10--|
-----------4/-7--------------------------|
--------5--------------------------------|
-----5-----------------------------------|
--3--------------------------------------|

--------------14----------17--14--16--14----------|
----------17------17----------------------17------|
------16--------------16----------------------16--|
--14----------------------------------------------|
--------------------------------------------------|
--------------------------------------------------|

--------------14----------------------------------|
----------17------17------15--14--------------14--|
------16--------------16----------16--14--16------|
--14----------------------------------------------|
--------------------------------------------------|
--------------------------------------------------|

--------------14----------17--14--16--14----------|
----------17------17----------------------17------|
--16------------------16----------------------16--|
------14------------------------------------------|
--------------------------------------------------|
--------------------------------------------------|

--22--19--21--19-21-19------------------------------|
------------------------22--19--22------22------22--|
------------------------------------21------19------|
----------------------------------------------------|
----------------------------------------------------|
----------------------------------------------------|

--------------14----------17--14--16--14----------|
----------17------17----------------------17------|
------16--------------16----------------------16--|
--14----------------------------------------------|
--------------------------------------------------|
--------------------------------------------------|

--------------14----------------------------------|
----------17------17------15--14--------------14--|
------16--------------16----------16--14--16------|
--14----------------------------------------------|
--------------------------------------------------|
--------------------------------------------------|

--------------14----------17--14--16--14----------|
----------17------17----------------------17------|
--16------------------16----------------------16--|
------14------------------------------------------|
--------------------------------------------------|
--------------------------------------------------|

--------------------------19--22--19--24--21------|
----------------------20----------------------22--|
--------------16/-19------------------------------|
----------17--------------------------------------|
------17------------------------------------------|
--15----------------------------------------------|

----------------------------------|--------------------------------------|
----------------------------------|--------------------------------------|
--13----14----16----16------------|----------13--14--16----14----13------|
----------------------------------|----------------------------------14--|
----------------------------------|--------------------------------------|
----------------------------------|--------------------------------------|

--------------------------------|--------------------------|
--------------------------------|--------------------------|
--------------------------------|--------------------------|
--16--------12----12------------|--------------------------|
--------------------------------|--------------------------|

--------------------------------|--------------------------|

----------------------------------|--------------------------------------|
----------------------------------|--------------------------------------|
--11----13----14----14------------|----------11--13--14----13----11------|
----------------------------------|----------------------------------12--|
----------------------------------|--------------------------------------|
----------------------------------|--------------------------------------|

----------------------------|--------------------------|
----------------------------|--------------------------|
----------------------------|--------------------------|
--14------------------------|--------------------------|
----------------------------|--------------------------|
----------------------------|--------------------------|

----------------------------------|--------------------------------------|
----------------------------------|--------------14--15----14------------|
--13----14----16----16------------|----------16------------------16--14--|
----------------------------------|--------------------------------------|
----------------------------------|--------------------------------------|
----------------------------------|--------------------------------------|

--------------------------------|--------------------------|
--------------------------------|--------------------------|
--16--------11----11------------|--------------------------|
--------------------------------|--------------------------|
--------------------------------|--------------------------|
--------------------------------|--------------------------|

----------------------------------|------------------------------------|
--10----12----14----12b-----------|----------10--12--14----12----10----|
----------------------------------|------------------------------------|
----------------------------------|------------------------------------|
----------------------------------|------------------------------------|
----------------------------------|------------------------------------|

------------------------------|--------------------------|
--12--------8----8------------|--------------------------|
------------------------------|--------------------------|
------------------------------|--------------------------|
------------------------------|--------------------------|
------------------------------|--------------------------|

----------------------------------|--------------------------------|
--12----14----15----14b-----------|--------------15----17----19----|
----------------------------------|--------------------------------|
----------------------------------|--------------------------------|
----------------------------------|--------------------------------|
----------------------------------|--------------------------------|

----------------------------|----------------------------------|
--17b-----------------------|--19----21----22----21b-----------|
----------------------------|----------------------------------|
----------------------------|----------------------------------|
----------------------------|----------------------------------|
----------------------------|----------------------------------|

--------------------------------------|------------19----------------|
----------19--21--22----21----19/-17--|--19--------------------------|

--------------------------------------|------------------------------|
--------------------------------------|------------------------------|
--------------------------------------|------------------------------|
--------------------------------------|------------------------------|

--------------------------|---------------------------------------|
--------------------------|-----------7--------10--7--9--7--------|
--------------------------|--------9-----9------------------9-----|
--------------------------|-----9-----------9------------------9--|
--------------------------|--7------------------------------------|
--------------------------|---------------------------------------|

--------------------------------------|---------------------------------------|
-----------7--------------------------|-----------7--------10--7--9--7--------|
--------9-----9-----7--6-----------6--|--------9-----9------------------9-----|
-----9-----------9--------9--7--9-----|--9--------------9------------------9--|
--7-----------------------------------|-----7---------------------------------|
--------------------------------------|---------------------------------------|

--10--7--9--7-9-7---------------------------|
-------------------10--7--10-----10-----10--|
------------------------------9------7------|
--------------------------------------------|
--------------------------------------------|
--------------------------------------------|

---------------------------------------|--------------------------------------|
-----------7--------10--7--9--7--------|-----------7--------------------------|
--------9-----9------------------9-----|--------9-----9-----7--6-----------6--|
-----9-----------9------------------9--|-----9-----------9--------9--7--9-----|
--7------------------------------------|--7-----------------------------------|
---------------------------------------|--------------------------------------|

---------------------------------------|
-----------7--------10--7--9--7--------|
--------9-----9------------------9-----|
--9--------------9------------------9--|
-----7---------------------------------|
---------------------------------------|

--------------------7--10--7--12--9------|--16----17----19----19------------|
-----------------8-------------------10--|----------------------------------|
-----------4/-7--------------------------|----------------------------------|
--------5--------------------------------|----------------------------------|
-----5-----------------------------------|----------------------------------|
--3--------------------------------------|----------------------------------|

----------16--17--19----17----16------|--------------------------------|
----------------------------------17--|--19--------15----15------------|
--------------------------------------|--------------------------------|
--------------------------------------|--------------------------------|
--------------------------------------|--------------------------------|
--------------------------------------|--------------------------------|

--------------------------|--14----16----17----17------------|
--------------------------|----------------------------------|
--------------------------|----------------------------------|
--------------------------|----------------------------------|
--------------------------|----------------------------------|
--------------------------|----------------------------------|

----------14--16--17----16----14------|----------------------------|
----------------------------------15--|--17------------------------|
--------------------------------------|----------------------------|
--------------------------------------|----------------------------|
--------------------------------------|----------------------------|
--------------------------------------|----------------------------|

--------------------------|--16----17----19----19------------|
--------------------------|----------------------------------|
--------------------------|----------------------------------|
--------------------------|----------------------------------|
--------------------------|----------------------------------|
--------------------------|----------------------------------|

----------19--21--22----21----19--17--|--19--------14----14------------|
--------------------------------------|--------------------------------|
--------------------------------------|--------------------------------|
--------------------------------------|--------------------------------|
--------------------------------------|--------------------------------|
--------------------------------------|--------------------------------|

--------------------------|--17----19----21----19b-----------|
--------------------------|----------------------------------|
--------------------------|----------------------------------|
--------------------------|----------------------------------|
--------------------------|----------------------------------|
--------------------------|----------------------------------|

----------17--19--21----19----17----|--19--------21----19------------|
------------------------------------|--------------------------------|
------------------------------------|--------------------------------|
------------------------------------|--------------------------------|
------------------------------------|--------------------------------|
------------------------------------|--------------------------------|

--------------------------|--------------14------12----10--------------10--|
--------------------------|------12------------------------14--12--14------|
--------------------------|--11------11------11----------------------------|
--------------------------|------------------------------------------------|
--------------------------|------------------------------------------------|
--------------------------|------------------------------------------------|

--------------14--10------12--9------17--14------|
--12------12----------12---------10----------15--|
------11-----------------------------------------|
-------------------------------------------------|
-------------------------------------------------|
-------------------------------------------------|

----------------------17----14--------------14--|
------15------17----------------17--15--17------|
--14------14------14----------------------------|
------------------------------------------------|
------------------------------------------------|
------------------------------------------------|

--------------17--14------16--12------19--16------|
--15------15----------15----------12----------17--|
------14------------------------------------------|
--------------------------------------------------|
--------------------------------------------------|

--------------------------------------------------|

--------------21------19----17--------------17--|
------19------------------------21--19--21------|
--18------18------18----------------------------|
------------------------------------------------|
------------------------------------------------|
------------------------------------------------|

--------------21--17------19-16----------16-19-16-------------|
--19------19----------19--------17----17----------17----------|
------18---------------------------16----------------16-------|
--------------------------------------------------------18----|
-----------------------------------------------------------19-|
--------------------------------------------------------------|

--19---------------------------------|
----------------17--0--19--0--17--0--|
-------------------------------------|
-------------------------------------|
-------------------------------------|
-------------------------------------|

------------------------------------------|
--16--0--14--0--12--0--10--0--9--0--7--0--|
------------------------------------------|
------------------------------------------|
------------------------------------------|
------------------------------------------|

--------------14----------17--14--16--14----------|
----------17------17----------------------17------|
------16--------------16----------------------16--|
--14----------------------------------------------|
--------------------------------------------------|
--------------------------------------------------|

--------------14----------------------------------|
----------17------17------15--14--------------14--|
------16--------------16----------16--14--16------|
--14----------------------------------------------|
--------------------------------------------------|
--------------------------------------------------|

--------------14----------17--14--16--14----------|
----------17------17----------------------17------|
--16------------------16----------------------16--|
------14------------------------------------------|
--------------------------------------------------|
--------------------------------------------------|

--22--19--21--19-21-19------------------------------|
------------------------22--19--22------22------22--|
------------------------------------21------19------|
----------------------------------------------------|
----------------------------------------------------|
----------------------------------------------------|

--------------14----------17--14--16--14----------|
----------17------17----------------------17------|

------16--------------16----------------------16--|
--14----------------------------------------------|
--------------------------------------------------|
--------------------------------------------------|

--------------14----------------------------------|
----------17------17------15--14--------------14--|
------16--------------16----------16--14--16------|
--14----------------------------------------------|
--------------------------------------------------|
--------------------------------------------------|

--------------14----------17--14--16--14----------|
----------17------17----------------------17------|
--16------------------16----------------------16--|
------14------------------------------------------|
--------------------------------------------------|
--------------------------------------------------|

--------------------------19--22--19--24--21------|
----------------------20----------------------22--|
--------------16/-19------------------------------|
----------17--------------------------------------|
------17------------------------------------------|
--15----------------------------------------------|

|---------------------9---------------|-----------------------------------|
|------12---------12-----12-10-9------|-----12----------------------------|
|*---------9--11------------------11--|---------9--11--8--9--8-9-8--------|
|*--9---------------------------------|--9-------------------------11--7--|
|-------------------------------------|-----------------------------------|
|-------------------------------------|-----------------------------------|

--------------------9---------------|--------------------------------|
-----12---------12-----12-10-9------|--------------------------------|
---------9--11------------------11--|--9--8--------------------------|
--9---------------------------------|--------11--9--7-------------7--|
------------------------------------|------------------11--9--11-----|
------------------------------------|--------------------------------|

--------------------9---------------|-----------------------------------|
-----12---------12-----12-10-9------|-----12----------------------------|
---------9--11------------------11--|---------9--11--8--9--8-9-8--------|
--9---------------------------------|--9-------------------------11--7--|
------------------------------------|-----------------------------------|
------------------------------------|-----------------------------------|
2x
--------------------9---------------|----------------------------------||
-----12---------12-----12-10-9------|--12--9--10--9--------------------||
---------9--11------------------11--|----------------11--9--8--9--11--*||
--9---------------------------------|---------------------------------*||
------------------------------------|----------------------------------||
------------------------------------|----------------------------------||

------------------------------------------|
------------------9--10--9-------------9--|
--11----11----11------------11--9--11-----|
------------------------------------------|
------------------------------------------|
------------------------------------------|

----------------------------------------|------------------------------------|
----------------------------------------|------------------------------------|
--11-------------8--9--8----------------|------------------------------------|
--------9----11-----------11--7--9--11--|--9----9-------6--7--6-----------6--|
----------------------------------------|------------9-----------9--7--9-----|
----------------------------------------|------------------------------------|

----------------------------------|------------------9--10--9--------------9--|
----------------------------------|--12----12----12------------12--10--12-----|
----------------------------------|-------------------------------------------|
----------------------------------|-------------------------------------------|
--9------------6--7--6------------|-------------------------------------------|
-------7----9-----------9--5------|-------------------------------------------|

-----------------------------------------|------------------------------------|
--12-------------9--10--9----------------|------------------------------------|
--------9----11------------11--7--9--11--|--9----9-------6--7--6-----------6--|
-----------------------------------------|------------9-----------9--7--9-----|
-----------------------------------------|------------------------------------|
-----------------------------------------|------------------------------------|

------------------------------------|-------------------||
------------------------------------|-------------------||
------------------------------------|-------------------||
--9------------6--7--6--------------|-------------------||
-------7----9-----------9--5--7--9--|--4----------------||
------------------------------------|-------------------||

http://www.tube8.com/hardcore/butt-junkies-tia-and-flower/29845/