You are on page 1of 25

Band: Silent Sanctuary

Song: Kismet
Album: Fuschiang Pag-Ibig
Sarvjit8@yahoo.com
Intro: G-Em-C
G-Em-C
G
Didn't mean to take you for granted
Em C
Didn't mean to show I don't care
G
Didn't mean to throw away this
Em
once in a lifetime of chance
C
Being with you
Chorus:
Em
And I'll drive for 2 hours
D/F#
to bring Butterfingers
G G/B
I don't mind the distance
C D
this Kismet's a dance
G
This time I surrender
My everything forever
Em
Life doesn't matter
C
just our souls together
G
Pride no longer has room in me
Em C
On bended knees in public I cry
G
Your name for everyone to know
that I love you
Em C
I love you, please hear me now
Repeat Chorus:
Instrumental: G-Em-C (4x)
Repeat Chorus:
Eric Clapton - Tears in Heaven (Unplugged)
Tabbed by: Todd
Email: todd_5_bbot@yahoo.com
Tuning: Standard
| / slide up
| \ slide down
| h hammer-on
| p pull-off
| ~ vibrato
| + harmonic
| x Mute note
This is really a three part guitar song, not to mention the bass, but I made it a two
part. It sounds almost exactly the same, it's just a little harder. If you play just G1
you can play it by yourself and do it justice, but try to get someone else to play with
you, it's nice.
The symbols above the tabs are for the beats.
| is for the first beat. ' is for every other beat.
Intro:
| ' ' ' | ' ' '
e |-----------------------------------------|
B |----------2h3p2---5---5-2---2---2---2----|
G |--------2-------2-4---4-2---2---2---2----|

G1 D |-----------------------------------------|
A |------0----------------------------------|
E |--0h2-------------4-4---2-2---2-0-0---0--|
| ' ' ' | ' ' '
e |-------------------------------------|
B |--3---3---3---3---2---2---2---2------|
G |--2---2---2---1---2---2---2---2------|
G1 D |-------------------------------------|
A |------------------0-0---0---0--------|
E |--2-2---2-0-0-0-0---------------0h2--|
Verses:
Part A:
| ' ' ' | ' ' '
e |--------------------------------------|
B |-------2h3p2---5---5-2---2---2---2----|
G |-----2-------2-4---4-2---2---2---2----|
G1 D |--------------------------------------|
A |---0----------------------------------|
E |---------------4-4---2-2---2-0-0---0--|
| ' ' ' | ' ' '
e |-------------------------5/7-5------------|
B |-------2h3p2---5---5-2---------5/7-5---5--|
G |-----2-------2-4---4-2---------------6----|
G2 D |------------------------------------------|
A |---0--------------------------------------|
E |---------------4-4---2--------------------|
| ' ' ' | ' ' '
e |-----------------------------------|
B |--3---3---2---2---0---0---2---3----|
G |--2---2---2---2---1---1---2---4----|
G1 D |-----------------------------------|
A |-----------------------------------|
E |--2-2---2-0-0---0-0-0---0---0---0--|
| ' ' ' | ' ' '
e |------0-------0---------------------|
B |--3-------2h3--------0---2-----3----|
G |----------------1----1---2-----4----|
G2 D |------------------------------------|
A |---------------------------3/5------|
E |-------------------0---0---------0--|
Part B:
Same as Part A except instead of...it's...........
| ' ' | ' '
e |------------------| e |-----------------|
B |-------2h3p2---5--| B |--2---2h3p2---5--|
G |-----2-------2-4--| G |----2-------2-4--|
G1/G2 D |------------------| G1/G2 D |-----------------|
A |---0--------------| A |--0--------------|
E |---------------4--| E |--------------4--|
and instead of.................it's............
| ' ' ' | ' ' '
e |----5/7-5------------| e |----2-4-4/5-4-2-0--|
B |----------5/7-5---5--| B |-------------------|
G |----------------6----| G |-------------------|
G2 D |---------------------| G2 D |-------------------|
A |---------------------| A |-------------------|
E |---------------------| E |-------------------|
Choruses:
| ' ' ' | ' ' ' | ' ' '
e |---------------------------------------------------|
B |--2---2---2---2---2---2---2---2---2---2---2---2----|
G |--2---2---2---2---1---1---1---1---0---0---0---0----|
G1 D |---------------------------------------------------|
A |---------------------------------------------------|
E |--2-2---2---2---2-1-1---1---1---1-0-0---0---0---0--|
| ' ' ' | ' ' ' | ' ' '

e |------2-------2-------1-------1-------0-------0----|
B |----2---2---2---2---2---2---2---2---2---2---2---2--|
G |---------------------------------------------------|
G2 D |--4-------4-------3-------3-------2-------2--------|
A |---------------------------------------------------|
E |---------------------------------------------------|
| ' ' ' | ' ' ' | ' ' '
e |------------------------------------------------|
B |------------------3---3---3---3------3-3---3----|
G |--3---3---3---3---2---2---2---2------2-2---2----|
G1 D |--2---2---2---2---------------------------------|
A |------------------2-2---2---2-------------------|
E |--2-2---2---2---2---------------0--------0------|
| ' ' ' | ' ' ' | ' ' '
e |--------------------------------------------------|
B |----------0---2-------3-------3--------3-3---3----|
G |------3-------------2---2---2----------2-2---2----|
G2 D |----2---2-----------------------------------------|
A |------------------2-------2-----------------------|
E |--2-------------------------------0--------0------|
Intro 2:
G1 Same as Intro 1. You can do last measure of G2 for fun if you're playing by yoursel
| ' ' ' | ' ' '
e |----------------------------5/7-5------------|
B |----------2h3p2---5---5-2---------5/7-5---5--|
G |--------2-------2-4---4-2---------------6----|
G2 D |---------------------------------------------|
A |------0--------------------------------------|
E |--0h2-------------4-4---2--------------------|
| ' ' ' | ' ' ' |-----------|
e |--------------------------------------------------| |
B |--3---3---3---3---2---2----------2h3-2------------| Alternate first
G |--2---2---2---1---2---2------2h4-------h4-2-------| note of verse
G2 D |-------------------------2h4----------------h4-2--|
A |------------------0-0-----------------------------|
E |--2-2---2-0-0-0-0---------------------------------|
Bridge: Unison
Can, and should with your discretion, be played with plural string picking on the 1st
and/or 3rd beats of measures...with your discretion, not every first and third.
Part A:
| ' ' ' | ' ' ' | ' ' ' | ' ' '
e |---------------------------------------------------------------------|
B |----------1-------3-----1-1-------3-------3-------3-------3----------|
G |--------0---0---0-----2-2-2-----2---2---0---0---2---2---0---0-2---4--|
D |---------------------------------------------------------------------|
A |--0h2/3-------2-----0-------0----------------------------------------|
E |------------------------------2-------3-------2-------0-------2-2-3--|
Part B:
| ' ' ' | ' ' ' | ' ' ' | ' ' '
e |---------------------------------------------------------------------|
B |------1-------3-----1-1---------3-------3-------3-----0---0---2---3--|
G |----0---0---0-----2-2-2-------2---2---0---0---2---2---1---1---2---4--|
D |---------------------------------------------------------------------|
A |--3-------2-----0-------0--------------------------------------------|
E |----------------------------2-------3-------2---------0-0---0---0---0|
Solo:
G1 plays Verse Part B twice
G2 repeats this twice
| ' ' ' | ' ' '
e |-----9h10p9-----12/14-12-9----------------------|
B |------------10----------------------------------|
G |------------------------------------------------|
G2 D |------------------------------------------------|
A |-----------------------------------11/12\11--7--|
E |------------------------------------------------|
| ' ' ' ' |

e |-------9/10-10-9-7----7/9-7--7-7--|
B |-------------------10-------------|
G |-----------------------------7-7--|
G2 D |----------------------------------|
A |--7/12----------------------------|
E |----------------------------------|
(Intro Part)
(Verse Part A)
(Verse Part B)
(Chorus Part)
(Intro 2)
(Verse Part A)
(Verse Part B)
(Chorus Part)
(Intro 2 minus last G2 variation)
(Bridge Part A)
(Bridge Part B)
(Solo)
(Chorus Part)
(Intro 2)
(Repeat Verse 1 and Chorus 1)
Outro: Unison
| ' ' ' | ' ' '
e |-----------------------------------------|
B |----------2h3p2---5---5-2---2---2---2----|
G |--------2-------2-4---4-2---2---2---2----|
D |-----------------------------------------|
A |------0----------------------------------|
E |--0h2-------------4-4---2-2---2-0-0---0--|
...Hea-ven Cuz I
| ' ' ' | ' '
e |--------------------------------------|
B |--3---3---3-----3------3-3---3--------|
G |--2---2---2-----2------2-2---2--------|
D |--------------------------------------|
A |--2-2---2---2-------------------------|
E |-------------------0-------0----------|
Know I don't be-long Here in...
(First two measures of Intro 2)...Heaven.
| ' ' '
e |---------------|
B |--3---3---3-3--|
G |--2---2---2-1--|
D |---------------|
A |---------------|
E |--2-2---2-2-0--|
(slow down)
e |----------------------------5--|
B |--------2-3-2h3p2---2-2/5-5-5--|
G |------2-----------2------------|
D |----2--------------------------|
A |--0-------------------------0--|
E |-------------------------------|
It might be you
Stephen Bishop
INTRO:
G G/B C D
G
Time
Bm C
I've been passing time watching trains go by
D G
All of my life
Bm C
Lying on the sand, watching seabirds fly
A G

Wishing there would be


Bm C D
Someone waiting home for me
Am7 D
Something's telling me it might be you
Am7 D
It's telling me it might be you
G
All of my life
G/B C
Looking back as lovers go walking past
D G
All of my life
G/B C
Wondering how they met and what makes it last
A G
If I found the place
G/B C A
Would I recognize the face?
Am7 D
Something's telling me it might be you
Am7 D
Yeah, it's telling me it might be you
B Em Bm
So many quiet walks to take
Fm C
So many dreams to wake
Cm G D
And we've so much love to make
Em Am7 D
I think we're gonna need some time
Dm Cmaj7
Maybe all we need is time
Am7 D
And it's telling me it might be you
G
All of my life
Instrumental
G/B C D
G G/B C
I've been saving love songs and lullabies
A G
And there's so much more
G/B C A
No one's ever heard before
Am7 D
Something's telling me it might be you
Am7 D
Yeah, it's telling me it must be you
Am7 D
And I'm feeling it'll just be you
G
All of my life
G/B
It's you
C
It's you
D
I've been waiting for
G
all of my life
G/B
Maybe it's you
C
Maybe it's you
D

I've been waiting for


G
all of my life
G/B
Maybe it's you
C
Maybe it's you
D
I've been waiting for
G
all of my life
:D ..... Sepra sa Mga Taga ZamoRaZ bOysSS..
OGiNg GuiTariSt...

Walang Iba
Gab.. Ay, Ezra Band pala
Intro:
G - Bm - C - D
G-I.
Bm
Ilang beses nang nag-away
C
Hanggang sa magkasakitan
D G-Di na alam ang pinagmulan
II.
Bm
Pati maliliit na bagay
C
Na napag-uusapan
D
Bigla na lang pinag-aawayan
Refrain/Prechorus/Whatever:
C Bm
Ngunit kahit na ganito
C Bm
Madalas na di tayo magkasundo
Am Bm C D-Ikaw lang ang gusto kong makapiling sa buong buhay ko
Chorus1:
G Bm
Kahit na binabato mo ako ng kung anu-ano
C D
Ikaw pa rin ang gusto ko
G Bm
Kahit na sinasampal mo ako't sinisipa
C D
Nasusugatan mo
Am Bm C
Ikaw pa rin, walang iba
Am Bm C
Ang gusto kong makasama
D-- G
Walang iba
Bm C D-Walang iba

III.
Nagsimula sa mga asaran
Hanggang sa magkainitan
Isang eksenang bangayan nanaman
IV.
Ba't ba kasi pinagpipilitan
Ang di maintindihan?
Di naman kinakailangan
(Refrain)
Chorus1
Interlude

Chorus2:
G Bm
Kahit na binabato mo ako ng kung anu-ano
C D
Ikaw pa rin ang gusto ko
G Bm
Kahit na sinasampal mo ako't sinisipa
C D
Nasusugatan mo
Am Bm C
Ikaw pa rin, walang iba
Am Bm C
Ang gusto kong makasama
Am Bm C
Wag ka nang mawawala
D-hmm
G - Bm - C - D
Walang iba
Last Chord: G
cmon! gwa ni tcher 2...

-itshard

Song Title: Pain In My Heart


Artist: ZOO
Tabbed by: Ehmp0y
Actually Plucking yung Song na to eh kasu wala pa ko time para I pluck. . kaya e2 muna
chords lang! Pagtyagaan nyu na lang po ah?! Xenxa na hehe Dedicate ko 2 para sa mga
huhu. . kagaya ku.. hmm.. add nyu ko friendster hehe. .
E2 thx.
Email/Friendster:ehmp0y@yahoo.com
Contact #: +639162413139
Tuning: Standard EADGBe
Intro:
Aadd9 D Em-E
Verse 1:
Aadd9
D
Here i am alone
Em
C#m
in this Empty Room
B
Add9
and let my mind just fly
E
me to the end
Aadd9
D
thoughts of you still
Em
C#m
linger in my memory
B
Aadd9
wondering why my life
E
is not that fair

Refrain:
C#m
Aadd9
i could still recall
C#m
Em
those memories of you
B
Em
the joy and all your laughter
B
Em
the love that we've been through
Aadd9
E
oh. i can't believe you're gone

Chorus:
C#m
i don't want to remember
D
Em
the things we used to do
C#m
all the things
D
Em
that remind me of you
C#m

i don't want to hear those songs


D
Em
those songs we used to sing
C#m
'cause i don't wanna feel
B
Aadd9
the pain in my heart

Verse 2:
Aadd9
talkin'
Em
reasons
B
findin'

D
to myself for
C#m
i can't find
Add9
out why
E
everything went wrong
Aadd9
D
tears falling down my cheeks
Em
C#m
that i've been trying to hold
B
Aadd9
i just don't know if
E
i could still do on

Refrain:
C#m
Aadd9
i wanted you to stay
C#m
Em
the tears began to show
B
Em
you said you cared for me
B
E
but then you had to go
Aadd9
and now i know you're gone
Repeat Chorus:

Adlib: C#m Aadd9 C#m Em


B Em B E
Aadd9
i just can't believe
E
you're gone. . . .

Repeat Chorus:
Chorus:
C#m
And i don't want to remember
D
Em
the things we used to do
C#m

all the things


D
Em
that remind me of you
C#m
i don't want to hear those songs
D
Em
those songs we used to sing
C#m
'cause i don't wanna feel
B
Aadd9
the pain in my heart

C#m
oh. oh 'cause i don't wanna feel
C#m
yeah. i don't wanna feel
B
Aadd9
the pain in my heart
B Aadd9
oh. oh. .. .

----THE END----

hiling by silent sanctuary


Sana Magustohan Niyo Tong Tabs Ko ^^

A
|e|----------------------------------------|
|B|--------2-------------------------------|
|G|---------2------------------------------|
|D|-------2--------------------------------|
|A|----------------------------------------|
|E|----------------------------------------|
Minsan Di Ko Maiwasang,

|e|----------------------------------------|
|B|-------3--------------------------------|
|G|-----2----------------------------------|
|D|----------------------------------------|
|A|----------------------------------------|
|E|----------------------------------------|
Isipin Ka
A
|e|----------------------------------------|
|B|--------2-------------------------------|
|G|---------2------------------------------|
|D|-------2--------------------------------|
|A|----------------------------------------|
|E|----------------------------------------|
Lalo Na Sa Tuwing Nag-i....

|e|----------------------------------------|
|B|-------3--------------------------------|
|G|-----2----------------------------------|
|D|----------------------------------------|
|A|----------------------------------------|
|E|----------------------------------------|
Isa
F#m
E
D
|e|------1------------------|---------|------2-----|
|B|-------1-----------------|---------|---------3--|
|G|--------1----------------|----1----|------2-----|
|D|------1--------4---------|------2--|------------|
|A|-----1----------4--------|-------2-|------------|
|E|------1------------------|---------|------------|
Ano Na Kayang...

Balita Sa

Iyo

F#m
E
D
|e|------1------------------|---------|------2-----|
|B|-------1-----------------|---------|---------3--|
|G|--------1----------------|----1----|------2-----|
|D|------1--------4---------|------2--|------------|
|A|-----1----------4--------|-------2-|------------|
|E|------1------------------|---------|------------|

Naiisip

mo rin kaya

A
|e|----------------------------------------|
|B|--------2-------------------------------|
|G|---------2------------------------------|
|D|-------2--------------------------------|
|A|----------------------------------------|
|E|----------------------------------------|
Simula nang ikaw ay Ma....

|e|----------------------------------------|
|B|-------3--------------------------------|
|G|-----2----------------------------------|
|D|----------------------------------------|
|A|----------------------------------------|
|E|----------------------------------------|
wala

A
|e|----------------------------------------|
|B|--------2-------------------------------|
|G|---------2------------------------------|
|D|-------2--------------------------------|
|A|----------------------------------------|
|E|----------------------------------------|
Wala nang dahilan para...

|e|----------------------------------------|
|B|-------3--------------------------------|
|G|-----2----------------------------------|
|D|----------------------------------------|
|A|----------------------------------------|
|E|----------------------------------------|
Lumuha

A
|e|----------------------------------------|
|B|--------2-------------------------------|
|G|---------2------------------------------|
|D|-------2--------------------------------|
|A|----------------------------------------|
|E|----------------------------------------|
{Dam} damin pilit ko nang tina...

|e|----------------------------------------|
|B|-------3--------------------------------|
|G|-----2----------------------------------|
|D|----------------------------------------|
|A|----------------------------------------|
|E|----------------------------------------|
Tago...

Ako

A
|e|----------------------------------------|
|B|--------2-------------------------------|
|G|---------2------------------------------|
|D|-------2--------------------------------|
|A|----------------------------------------|
|E|----------------------------------------|
{Hina} hanap ka parin ng aking...

|e|----------------------------------------|
|B|-------3--------------------------------|
|G|-----2----------------------------------|
|D|----------------------------------------|
|A|----------------------------------------|
|E|----------------------------------------|
Puso
F#m
E
D
|e|------1------------------|---------|------2-----|
|B|-------1-----------------|---------|---------3--|
|G|--------1----------------|----1----|------2-----|
|D|------1--------4---------|------2--|------------|
|A|-----1----------4--------|-------2-|------------|
|E|------1------------------|---------|------------|
Parang
Kulang
Nga....

F#m
E
D
|e|------1------------------|---------|------2-----|
|B|-------1-----------------|---------|---------3--|
|G|--------1----------------|----1----|------2-----|
|D|------1--------4---------|------2--|------------|
|A|-----1----------4--------|-------2-|------------|
|E|------1------------------|---------|------------|
Kapag
Ika'y
Wala

Chorus 1:
A
E
|e|-------------------------|-------------------|
|B|--------2----------------|-------------------|
|G|---------2---------------|----1--------------|
|D|-------2-----------------|------2------------|
|A|-------------------------|--------2----------|
|E|-------------------------|-------------------|
{at hihi}Hiling Sa Mga...
Butiun Na Minsan Pa

F#m
E
D
|e|------1------------------|---------|------2-----|
|B|-------1-----------------|---------|---------3--|
|G|--------1----------------|----1----|------2-----|
|D|------1--------4---------|------2--|------------|
|A|-----1----------4--------|-------2-|------------|
|E|------1------------------|---------|------------|
sana
ako'y.
iyong mahalin

A
E
|e|----------------------|-------------------|
|B|--------2-------------|-------------------|
|G|---------2------------|----1--------------|
|D|-------2--------------|------2------------|
|A|----------------------|--------2----------|
|E|----------------------|-------------------|
{hihi} ling kahit Dumi... lim ang aking

F#m
E
D
|e|------1------------------|---------|------2-----|
|B|-------1-----------------|---------|---------3--|
|G|--------1----------------|----1----|------2-----|
|D|------1--------4---------|------2--|------------|
|A|-----1----------4--------|-------2-|------------|
|E|------1------------------|---------|------------|
Daan
na tata..
hakin
F#m
|e|-------1----------------------------------|
|B|--------1---------------------------------|
|G|--------1---------------------------------|
|D|-------1------------4---------------------|
|A|---------1-----------4--------------------|
|E|---------1--------------------------------|
Patungo...

A
|e|----------------------------------------|
|B|--------2-------------------------------|
|G|---------2------------------------------|
|D|-------2--------------------------------|
|A|----------------------------------------|
|E|----------------------------------------|
{Ala} ala mong tinangay na ng...

|e|----------------------------------------|
|B|-------3--------------------------------|
|G|-----2----------------------------------|
|D|----------------------------------------|
|A|----------------------------------------|
|E|----------------------------------------|
Hangin....

A
|e|----------------------------------------|
|B|--------2-------------------------------|
|G|---------2------------------------------|
|D|-------2--------------------------------|
|A|----------------------------------------|
|E|----------------------------------------|
Sa langit ko na lamang ba Yaya...

|e|----------------------------------------|
|B|-------3--------------------------------|
|G|-----2----------------------------------|
|D|----------------------------------------|
|A|----------------------------------------|
|E|----------------------------------------|
kapin

F#m
E
D
|e|------1------------------|---------|------2-----|
|B|-------1-----------------|---------|---------3--|
|G|--------1----------------|----1----|------2-----|
|D|------1--------4---------|------2--|------------|
|A|-----1----------4--------|-------2-|------------|
|E|------1------------------|---------|------------|
Nasan..
Kana
Kaya

F#m
E
D
|e|------1------------------|---------|------2-----|
|B|-------1-----------------|---------|---------3--|
|G|--------1----------------|----1----|------2-----|
|D|------1--------4---------|------2--|------------|
|A|-----1----------4--------|-------2-|------------|
|E|------1------------------|---------|------------|
Aasa
Ba
Sa Wala

Chorus 2:
A
E
|e|-------------------------|-------------------|
|B|--------2----------------|-------------------|
|G|---------2---------------|----1--------------|
|D|-------2-----------------|------2------------|
|A|-------------------------|--------2----------|
|E|-------------------------|-------------------|
{at hi}Hiling Sa Mga...
Butiun Na Minsan Pa

F#m
E
D
|e|------1------------------|---------|------2-----|
|B|-------1-----------------|---------|---------3--|
|G|--------1----------------|----1----|------2-----|
|D|------1--------4---------|------2--|------------|
|A|-----1----------4--------|-------2-|------------|
|E|------1------------------|---------|------------|
sana
ako'y.
iyong mahalin

A
E
|e|----------------------|-------------------|
|B|--------2-------------|-------------------|
|G|---------2------------|----1--------------|
|D|-------2--------------|------2------------|
|A|----------------------|--------2----------|
|E|----------------------|-------------------|

{hihi} ling kahit Dumi...

lim ang aking

F#m
E
D
|e|------1------------------|---------|------2-----|
|B|-------1-----------------|---------|---------3--|
|G|--------1----------------|----1----|------2-----|
|D|------1--------4---------|------2--|------------|
|A|-----1----------4--------|-------2-|------------|
|E|------1------------------|---------|------------|
Daan
na tata..
hakin

F#m
|e|-------1----------------------------------|
|B|--------1---------------------------------|
|G|--------1---------------------------------|
|D|-------1------------4---------------------|
|A|---------1-----------4--------------------|
|E|---------1--------------------------------|
Patungo Sa I...

D
|e|-----2----------------------------------|
|B|-------3--------------------------------|
|G|-----2----------------------------------|
|D|----------------------------------------|
|A|----------------------------------------|
|E|----------------------------------------|
...yo

F#m
|e|-------1----------------------------------|
|B|--------1---------------------------------|
|G|--------1---------------------------------|
|D|-------1------------4---------------------|
|A|---------1-----------4--------------------|
|E|---------1--------------------------------|
Patungo Sa I...

D
|e|-----2----------------------------------|
|B|-------3--------------------------------|
|G|-----2----------------------------------|
|D|----------------------------------------|
|A|----------------------------------------|
|E|----------------------------------------|
...yo

Bridge:
[F#m]
|e|-------1----------------------------------|
|B|--------1---------------------------------|

|G|--------1---------------------------------|
|D|-------1------------4---------------------|
|A|---------1-----------4--------------------|
|E|---------1--------------------------------|
Ipipikit ko ang aking....

[D]
|e|-----2----------------------------------|
|B|-------3--------------------------------|
|G|-----2----------------------------------|
|D|----------------------------------------|
|A|----------------------------------------|
|E|----------------------------------------|
mata dahil Nais Ka..

[F#m]
|e|-------1----------------------------------|
|B|--------1---------------------------------|
|G|--------1---------------------------------|
|D|-------1------------4---------------------|
|A|---------1-----------4--------------------|
|E|---------1--------------------------------|
Lamang Mahag...

[D]
|e|-----2----------------------------------|
|B|-------3--------------------------------|
|G|-----2----------------------------------|
|D|----------------------------------------|
|A|----------------------------------------|
|E|----------------------------------------|
...kan Nais ko

[F#m]
|e|-------1----------------------------------|
|B|--------1---------------------------------|
|G|--------1---------------------------------|
|D|-------1------------4---------------------|
|A|---------1-----------4--------------------|
|E|---------1--------------------------------|
lamang Masi...

[D]
|e|-----2----------------------------------|
|B|-------3--------------------------------|
|G|-----2----------------------------------|
|D|----------------------------------------|
|A|----------------------------------------|
|E|----------------------------------------|
...Layan Kahit a...

[F#m]
|e|-------1----------------------------------|

|B|--------1---------------------------------|
|G|--------1---------------------------------|
|D|-------1------------4---------------------|
|A|---------1-----------4--------------------|
|E|---------1--------------------------------|
...lam kong Tapos

[D]
|e|-----2----------------------------------|
|B|-------3--------------------------------|
|G|-----2----------------------------------|
|D|----------------------------------------|
|A|----------------------------------------|
|E|----------------------------------------|
Na, Kahit a...

[F#m]
|e|-------1----------------------------------|
|B|--------1---------------------------------|
|G|--------1---------------------------------|
|D|-------1------------4---------------------|
|A|---------1-----------4--------------------|
|E|---------1--------------------------------|
...lam kong...

[D]
|e|-----2----|-----------------------------|
|B|-------3--|-----------3-----------------|
|G|-----2----|---------2-------------------|
|D|----------|-----------------------------|
|A|----------|-----------------------------|
Wala Ka
Na....

(Repeat Chorus 2 except yung Last Na "patungo sa iyo")

F#m
|e|-------1----------------------------------|
|B|--------1---------------------------------|
|G|--------1---------------------------------|
|D|-------1------------4---------------------|
|A|---------1-----------4--------------------|
|E|---------1--------------------------------|
Patungo...

A
|e|----------------------------------------|
|B|--------2-------------------------------|
|G|---------2------------------------------|
|D|-------2--------------------------------|
|A|----------------------------------------|
|E|----------------------------------------|
Sa 'Yo

Song: Kai
Artist: Maryzark
Date: 07 - 10 - 06
Tabbed by: Sungao
sungao_punk@yahoo.com

09183140928

"weehoo! nyahahaha.. wula lang akong magwa weh..


di pa ako cgurdo sa mga lead parts xe maciadong
malapot kapaen sa cd player nmen weh.. naglagay
n den ako ng kordz para dun sa mga indi p mrunong
bumasa ng tabs.. yayown.. muah! T_T"
Intro
|----------------------------------------------|
|----------------------------------------------|
|----------------------------------------------|
|--6-6-6-6-6-6-6-6----8--3-3-3-3-3----5-5------|
|--6-6-6-6-6-6-6-6----x--3-3-3-3-3----5-5------|
|--4-4-4-4-4-4-4-4--\-6--1-1-1-1-1----3-3-/-/--|
|-----------------------------------------|
|-----------------------------------------|
|-----------------------------------------|
|--6-6-6-6-6-6-6-6----8--3-3-3-3-3-3-3-3--|
|--6-6-6-6-6-6-6-6----x--3-3-3-3-3-3-3-3--|
|--4-4-4-4-4-4-4-4--\-6--1-1-1-1-1-1-1-1--|

Verse P.M.
|-----------------------------------------------------------|
|-----------------------------------------------------------|
|-------------------5---------------------------------------|
|-------6-\-8----6-8-6-5--------3-\-5------4-h-5-4-4-5------|
|---------------------------6-----------------------------5-|
|--4-4-------4-4-------------1-1------1-1-------------------|
|-----------------------------------------------------------|
|-----------------------------------------------------------|
|------------------8-5-5------------------------------------|
|------6-\-8----6-------8-6-----3-\-5-----4-h-5-4-4-5-------|
|--------------------------------------------------------5--|
|--4-4------4-4-------------1-1-------1-1-------------------|
Repear Verse x2
Refrain
|-----------------------------|
|-----------------------------|
|--3-3---5-5---6-6-6-6-6-6-6--|
|--3-3---5-5---6-6-6-6-6-6-6--| X2
|--1-1---3-3---4-4-4-4-4-4-4--|
|-----------------------------|
Repeat Verse
Repeat Refrain
Chorus

|------------------------------------------------------|
|------------------------------------------------------|
|------------------------------------------------------|
|--6-6--8--6-8-10-8-6-5------3-3--5--3-3--4-h-5-4------|
|--6-6--------------------6--3-3-----3-3------------5--|
|--4-4-----------------------1-1-----1-1---------------|
|------------------------------------------|
|------------------------------------------|
|--8-8-8-8-8-8------6-----8-----12-----13--|
|--8-8-8-8-8-8------x-----x------x------x--|
|--6-6-6-6-6-6------4--\--6--\--10--\--11--|
|------------------------------------------|
Chrous X2
|----------------------------------|
|----------------------------------|
|--6-----8-----12-----13-13-13-13--|
|--x-----x------x-----x--x--x--x---|
|--4--\--6--\--10--\--11-11-11-11--|
|----------------------------------|
|--------------------------------------|
|--------------------------------------|
|--------------------------------------|
|--6-6-6-6-6-6-6-6----3-3-3-3-3-3-3-3--|
|--6-6-6-6-6-6-6-6----3-3-3-3-3-3-3-3--| X2
|--4-4-4-4-4-4-4-4----1-1-1-1-1-1-1-1--|
Lead
|-------------------------|
|--6-7-7-6-7-7-6-7-7-7-7--|
|--6-6-6-6-6-6-6-6-6-6-6--| times marming
|-------------------------| beses
|-------------------------|
|-------------------------|
Repeat Verse
Refrain 2 P.M
|-------------------------------------------|
|-------------------------------------------|
|--------------------------6-6-6-6-6-6-6-6--|
|--3-3-3-3-3---5-5-5-5-5---6-6-6-6-6-6-6-6--|
|--1-1-1-1-1---3-3-3-3-3---4-4-4-4-4-4-4-4--|
|-------------------------------------------|
Repeat Chrous
|-----------------------------------------------|
|-----------------------------------------------|
|-----------------------------------------------|
|--6-------------3--------------6------------3--|
|--6-------------3--------------6------------3--|
|--4-------------1--------------4------------1--|
Last Chorus
|----------------------------------------------------|
|----------------------------------------------------|
|------------------------8-8-8-8-8--6---8---12---13--|
|--6-6-6-6-6--3-3-3-3-3--8-8-8-8-8--x---x---x-----x--| X4
|--6-6-6-6-6--3-3-3-3-3--6-6-6-6-6--4-\-6-\-10-\-11--|
|--4-4-4-4-4--1-1-1-1-1------------------------------|

Lead Part enters in round 3


|-----------------------------------|
|-----------------------------------|
|--6-----8-----12-----13-13-13-13---|
|--x-----x------x------x--x--x--x---| X2
|--4--\--6--\--10--\--11-11-11-11---|
|-----------------------------------|
|--------|
|--------|
|--------|
|---4----|
|---4----|
|---6----|
Chords
Intro
G# - F - G Break
G# - F
Verse
G# - F x4
Refrain
Bb - C - C# x2
Chorus
G# - F - Eb - C# x2
Bridge
G# - F x2
Lyrics
unti unting gumagalaw
kanyang matang nakatanaw
sayong ngiting walang saya
nagtatanong, nagatataka
bakit ba ganito
tinapos sa gulo
wala na rin bang halaga
ang yakap at halik niya
ang dating hinahanap pa
ngayo'y tinataguan na
bakit ba ganto
tinapos sa gulo
mahalin mo na lang kahit kunwari
dalangin niyang nakatingin sa langit
naubos na ang sanadali ng buhay niyang
kasing gulo ng isang
pelikulang wala namang istorya
natapos ng ikaw na lang ang bida
di mo man lang nasabi na
mahal na mahal mo siya
mahal na mahal mo siya
ang hawak mong kasing lamig
ng huling halik sa kanyang bibig
bakit b umiwas pa
sa huling tanong na meron siya

unti unting nalilito


naiinis sa kwento mo
daig niyo pa ang tv ko
naubos na ang luha niya
pikit na ang kanyang mata
kaninang nakatitig pa
sa larawan mo na yakap niya

para sayo by parokya ni edgar


Intro: E-B-C#m-B
A-E-A-B
verse I:
E
Lumayo kana sa akin
C#m
Wag mo kong kausapin
Abm
Parang awa mo na
A
Wag kang magpapaakit sakin
E
Ayoko lang masaktan ka
C#m
Malakas akong mambola
Abm
A
Hindi ako santo
Chorus:
E-BPero para sayo
C#m
Abm
Ako'y magbabago
A
E
C#m
Kahit mahirap
B
Kakayanin ko
E-B
Dahil para sayo
C#m
Abm
Handa akong magpakatino
A
E
Laging isipin
C#m
B
Lahat ay gagawin
E-C#m-Abm-A
Basta para sayo

Verse II:
E
C#m
Hindi ikaw yung tipong niloloko
A
At hindi naman ako yung tipong nagseseryoso
E
C#m
At kahit sulit sana sayo ang kasalanan
Abm
A
Lolokohin lang kita kaya kung pwede wag nalang
E
C#m
Dahil ayoko nang masaktan ka
Abm
Wag kang maniniwala
Hindi ako santo

Chorus:
E-BPero para sayo

C#m
Abm
Ako'y magbabago
A
E
C#m
Kahit mahirap
B
Kakayanin ko
E-B
Dahil para sayo
C#m
Abm
Handa akong magpakatino
A
E
Laging isipin
C#m
B
Lahat ay gagawin
E-C#m-Abm-A
Basta para sayo

Adlib: E-C#m-Abm-AE-C#m-Abm-A-

Verse III:
E
Bakit nakikinig kapa
C#m
Matatapos na ang kanta
A
Pinapatakas na kita Mula nung una stanza
E
Hindi kaba natatakot
C#m
Abm
Baka ikaw ay masangkot
A
Sa mga kasalanan ko
Chorus:
E-BPero para sayo
C#m
Abm
Ako'y magbabago
A
E
C#m
Kahit mahirap
B
Kakayanin ko
E-B
Dahil para sayo
C#m
Abm
Handa akong magpakatino
A
E
Laging isipin
C#m
B
Lahat ay gagawin
E-C#m-Abm-A
Basta para sayo
(repeat chorus except last line)