sobre o tempo

[intro:] b f# e
[intro:]
...no final
e|----------------|---------------|---2-------2-------4-------4------b|-2-4-2-4-2-2----|--2-4-2-4-2----|-----4-4-----4-4-----4-4-----4-4--g|-------------4--|------------4--|-4-------4-------4-------4-------4d|----------------|---------------|----------------------------------a|----------------|---------------|----------------------------------e|----------------|---------------|----------------------------------b
f#
tempo tempo mano velho
e
falta um tanto ainda eu sei
b
f#
e
pra voc� correr macio
b
f#
e
como zune um novo sed�
d#m
e7m
tempo tempo mano velho
c#m
f#
tempo tempo mano velho
e
f#
vai, vai, vai...
d#m
e7m
tempo amigo seja legal
c#m
f#
conto contigo pela madrugada
b e7m b e7m c#m f#
s� me derrube no final
[intro:]

perdendo dentes
intro:intro: riff 1 3x
riff 1
l-----------------------------------------------------l---------------------------l
l-x5----x5-----5/7------------------------------------l---------------------------l
l-x0----x0-------------------0h7---7----------7-------l---------------------------l
l-x5----x5-----5/7----0h9------------9----------9------l----4--------4/5-5--------l
l------------------------------------------------------l---4--------4/5-5---------l
l------------------------------------------------------l-2-----2/3-------

3---------l
x=tocar abafado
melodia tocar 2x
d
bm
pouco adiantou riff 1
f#m
g
acender cigarro
d
bm
falar palavr�o riff 1
f#m
g
perder a raz�o
d
bm
eu quis ser eu mesmo riff 1
f#m
g
eu quis ser algu�m
d
bm
mas sou como os outros riff 1
f#m
g
que n�o s�o ningu�m
em
f#m
acho que eu fico mesmo diferente
g
a
quando falo tudo o que penso realmente
em
f#m
mostro a todo mundo que n�o sei quem sou
g
a
g a
e uso as palavras de um perdedor
refr�o
d
as brigas que ganhei
a
nem um trof�u
em
como lembran�a
g
pra casa eu levei
d
as brigas que perdi
a
estas sim
em
eu nunca esqueci
gm
eu nunca esqueci
riff 1 2x
ordem da musica:
riff 1 3x
melodia
riff 1 2x
melodia

riff 1 2x
refr�o
riff 1 1x

uh uh uh, la la la, i� i�!
(john)
intro: (a c b d)
a
as pessoas tem que acreditar
em for�as invis�veis pra fazer o bem
tudo que se v� n�o � suficiente
e a gente sempre invoca o nome de algu�m
d
e
uh uh uh, la la la, i�
d
e
uh uh uh, la la la, i�
d
e
uh uh uh, la la la, i�

a
i�!
a
i�!
g
a
i�, i� i�!

acho muito caro o que ele t� pedindo
pra eu ter muito mais sorte e menos azar
acho muito pouco o que tenho no bolso
pra ver o sol nascer n�o tem que pagar
a
� certo que o milagre pode at� existir
mas voc� n�o vai querer usar
toda cura para todo mal
est� no hipogl�s, merthiolate e sonrisal
quem tem a paz como meta
quem quer um pouco de paz
que tire o reboque que espeta
o carro de quem vem atr�s

californication
tom: am
sem distor��o
riff 1:
e|--------------------------------|
b|------0-1-----------------------|
g|-----------------------0-2------|
d|----2-----2-2--------------0-0--|

a|--0------------------3----------|
e|-------------------1------------|
riff 2:
c
g
f
dm
e|------0--------------------------------1---|
b|---------------0------------------3----3---|
g|----0---0----------------2-------------2---|
d|-------------0---0--------------0------0---|
a|--3--------------------3---3---------------|
e|-----------3--------1----------------------|
riff 1 (6x)
psychic spies from china
try to steal your mind�s elation
little girls from sweden
dream of silver screen quotations
riff 2 (1x) ou cifra
c
g
and if you want these kind of dreams
f
dm
it�s californication
riff 1 (2x)
riff 1 (2x)
it�s the edge of the world
and all of western civilization
the sun may rise in the east
at least it settles in the final location
riff 2 (1x) ou cifra
c
g
it�s understood that hollywood
f
dm
sells californication
am f (2x)
am
pay your surgeon very well
f
to break the spell of aging
am
celebrity skin is this your chin
f
or is that war your waging
am

f
first born unicorn
am
f
hard core soft porn
c
g
dm
am
dream of californication

c
g
dm
dream of californication
riff 1 (2x)
riff 1 (2x)
marry me girl be my fairy to the world
be my very own constellation
a teenage bride with a baby inside
getting high on information
riff 2 (1x) ou cifra
c
g
and buy me a star on the boulevard
f
dm
it�s californication
riff 1 (2x)
riff 1 (2x)
space may be the final frontier
but it�s made in a hollywood basement
cobain can you hear the spheres
singing songs off station to station
riff 2 (1x) ou cifra
c
g
and alderon�s not far away
f
dm
it�s californication
am f (2x)
am
born and raised by those who praise
f
control of population
am
everybody�s been there and
f
i don�t mean on vacation
am

f
first born unicorn
am
f
hard core soft porn
c
g
dm
am
dream of californication
c
g
dm
dream of californication
c
g
dm
am
dream of californication
c
g
dm
dream of californication

(solo)
b = bend (levantar a corda at� ficar com o som de duas casas a mais)
e|----9---------9--------------------------------------------|
b|--10--------10---------------------------------------------|
g|------11b------11b---11-11-11-11-9-------------9�11b�-11-9-|
d|-----------------------------------11-11�-9-11-------------|
e|--9�12-14----9�12-14b-14�--17-16-14----14--------------------------|
b|10---------10-----------------------17----17�14�17�14�-14b-14b-14b-|
g|-------------------------------------------------------16b-16b-16b-|
d|-------------------------------------------------------------------|
e|-------14b-12----12----------12-10-9----|
b|-17-14--------14----14-12-10---------10-|
g|----------------------------------------|
d|----------------------------------------|
riff 1 (2x)
riff 1 (2x)
destruction leads to a very rough road
but it also breeds creation
and earthquakes are to a girl�s guitar
they�re just another good vibration
riff 2 (1x) ou cifra
c
g
and tidal waves couldn�t save the world
f
dm
from californication
am f (2x)
am
pay your surgeon very well
f
to break the spell of aging
am
sicker than the rest there is no test
f
but this is what you�re craving
am

f
first born unicorn
am
f
hard core soft porn
c
g
dm
am
dream of californication
c
g
dm
dream of californication
c
g
dm
am
dream of californication
c
g
dm
dream of californication

can't stop
e|-------|
b|-------|
g|-------|
d|-------|(repetir isso v�Rias vezes)
a|-5--7--|
e|-------|
(riff)
e|------------------------|----------------------|
b|------------------------|----------------------|
g|----7-9--------7-9------|---7-9-------7-9------|
d|------------------------|-0-----0-0-0-----0-0-0|
a|--7------7-7-7-----7-7-7|----------------------|
e|------------------------|----------------------|
e|----------------------|-------------------------|
b|----------------------|-------------------------|
g|---7-9-------7-9------|---7-9-------7-9---------|
d|----------------------|-------------------------|
a|----------------------|-------------------------|
e|-7-----7-7-7-----7-7-7|-8-----8-8-8-----8-8-8---|
(riff)
cant stop addicted to the shin dig
cop top he says i'm gonna win big
choose not a life of imitation
distant cousin to the reservation
defunkt the pistol that you pay for
this punk the feeling that you stay for
in time i want to be your best friend
eastside love is living on the west end
knock out but boy you better come to
don't die you know the truth is some do
go write your message on the pavement
burning so bright i wonder what the wave meant
white heat is screaming in the jungle
complete the motion if you stumble
go ask the dust for any answers
come back strong with 50 belly dancers
(g d bm c7+)
the world i love
the tears i drop
to be part of
the wave can't stop
ever wonder if it's all for you
the world i love
the trains i hop
to be part of
the wave can't stop
come and tell me when it's time to

(riff)
sweetheart is bleeding in the snowcone
so smart she's leading me to ozone
music the great communicator
use two sticks to make it in the nature
i'll get you into penetration
the gender of a generation
the birth of every other nation
worth your weight the gold of meditation
this chapter's going to be a close one
smoke rings i know you're going to blow one
all on a spaceship persevering
use my hands for everything but steering
can't stop the spirits when they need you
mop tops are happy when they feed you
j. butterfly is in the treetop
birds that blow the meaning into bebop
(g d bm c7+)
the world i love
the tears i drop
to be part of
the wave can't stop
ever wonder if it's all for you
the world i love
the trains i hop
to be part of
the wave can't stop
come and tell me when it's time to
(em d bm c) (fazer batida de reagge)
wait a minute i'm passing out, win or lose
just like you
far more shocking than anything i ever knew
how about you
ten more reasons why i need somebody new
just like you
far more shocking than anything i ever knew
right on cue
(riff)
kick start the golden generation sweet talk but don't intimidate her
can't stop the goods from endineering fell no need for any interfering
your image in the dictionary this life is more than ordinary
can i get

snow (hey oh)
composi��o: lucas gabriel
(intro)
e|---------------------|---------------------|---------------------|--------------------|

b|---------------------|---------------------|---------------------|--------------------|
g|-----4---4h6p4---4---|-----4---4h6p4---4---|---------------------|-----6--6h8p6---6---|
d|---6---6-------6-----|---6---6-------6-----|-----4---4h6p4---4---|---8--8-------8-----|
a|-6-------------------|-7-------------------|---6---6-------6-----|9-------------------|
e|---------------------|---------------------|7-------------------|---------------------|
e|---------------------|---------------------|---------------------|--------------------|
b|---------------------|---------------------|---------------------|--------------------|
g|-----4---4h6p4---4---|-----4---4h6p4--4---|---------------------|---------------------|
d|---6---6-------6-----|---6---6-------6-----|-----4---4h6p4---4---|-----4--4h6p4---4---|
a|-6-------------------|-7-------------------|---6---6-------6-----|---4--4-------6-----|
e|---------------------|---------------------|-7-------------------|6-------------------|
00:09
(drums & bass)
e|---------------------|---------------------|---------------------|--------------------|
b|---------------------|---------------------|---------------------|--------------------|
g|-----4---4h6p4---4---|-----4---4h6p4---4---|---------------------|-----6--6h8p6---6---|
d|---6---6-------6-----|---6---6-------6-----|-----4---4h6p4---4---|---8--8-------8-----|
a|-6-------------------|-7-------------------|---6---6-------6-----|9-------------------|
e|---------------------|---------------------|7-------------------|---------------------|
e|---------------------|---------------------|---------------------|--------------------|
b|---------------------|---------------------|---------------------|--------------------|
g|-----4---4h6p4---4---|-----4---4h6p4--4---|---------------------|---------------------|
d|---6---6-------6-----|---6---6-------6-----|-----4---4h6p4---4---|-----4--4h6p4---4---|
a|-6-------------------|-7-------------------|---6---6-------6-----|---4--4-------6-----|
e|---------------------|---------------------|-7-------------------|6-------------------|
pr�-Refr�o: (a hora que a bateria fica apenas no bumbo)
muita aten��o na batida dos acordes que john realiza!

e|--------|--------|--------|--------|--------|--11---|--------|--------|--------|--------|
b|---9----|---9----|---11---|---12---|---12---|---12---|---14---|---12---|--11---|---9----|
g|---9----|---9----|---11---|---13---|---13---|---13---|---11---|---13---|--11---|---9----|
d|---9----|---9----|---11---|---13---|---13---|---13---|---13---|---13---|--11---|---9----|
a|---7----|---7----|---9----|---11---|---11---|--------|---11---|---11---|--13---|---7----|
e|--------|--------|--------|--------|--------|--------|--------|--------|-------|--------|
refr�o:
mesma aten��o do pr�-refr�o
e|---7----|---x----|---9----|---11---|
b|---7----|---11---|---9----|---9----|
g|---8----|---11---|---9----|---9----|
d|---9----|---11---|---11---|---11---|
a|---9----|---9----|---11---|---11---|
e|---7----|--------|---9----|---9----|
solo do final:
e|-11-------11-------9-------9-------11-------11---------|
b|----12-------12------11------11-------12-------12------|
g|-------11------11-------11------11-------13-------13---|
d|-------------------------------------------------------|
a|-------------------------------------------------------|
e|-------------------------------------------------------|
(f#m d a e)
come to decide that the things that i tried
were in my life just to get high on
when i sit alone come get a little known
but i need more than myself this time
step from the road to the sea to the sky
and i do believe that we rely on
when i lay it on
come get to play it on
all my life to sacrifice
hey oh listen what i say oh
i got your
hey oh now listen what i say oh
when will i know that i really can't go
to the well once more time to decide on
when it's killing me
when will i really see
all that i need to look inside

come to believe that i better not leave
before i get my chance to ride
when it's killing me
what do i really need
all that i need to look inside
hey oh listen what i say oh
come back and
hey oh look at what i say oh
(d e f#m e d)
the more i see the less i know
the more i like to let it go... hey oh... whoa whoa whoa
(a e f#m)
deep beneath the cover of another perfect wonder
where it's so white as snow
privately divided by a world so undecided
and there is nowhere to go
in between the cover of another perfect wonder
and it�s so white as snow
running through the field where all my tracks will be concealed
and there is nowhere to go
oh
(f#m d a e)
when to descend to amend for a friend
all the channels that have broken down
now you bring it up
i�m gonna ring it up
just to hear you sing it out
step from the road to the sea to the sky
and i do believe what we rely on
when i lay it on
come get to play it on
all my life to sacrifice
hey oh listen what i say oh
i got your
hey oh listen what i say oh
(d e f#m e d)
the more i see the less i know
the more i like to let it go... hey oh
woah woah woah

(a e f#m)
deep beneath the cover of another perfect wonder
where it's so white as snow
privately divided by a world so undecided
and there is nowhere to go
in between the cover of another perfect wonder
where it�s so white as snow
running through the field where all my tracks will be concealed
and there is nowhere to go.
i said hey oh yeah... oh yeah,
tell my love now
hey yeah yeah oh yeah
tell my love now
deep beneath the cover of another perfect wonder
where it's so white as snow
privately divided by a world so undecided
and there is nowhere to go
in between the cover of another perfect wonder
where it�s so white as snow
running through the field where all my tracks will be concealed
and there is nowhere to go.
i said hey oh yeah... oh yeah,
tell my love now
hey yeah yeah oh yeah

soul to squeeze
intro: a
tom: f
f

c
dm bb
i got a bad disease
dm
f
c
gm bb
from my brain is where i ble-ed
f
c
dm bb
insanity it seems
dm
f
c
gm bb
it's got me by my soul to sque-eze
f
c
dm bb
wear all the love from me
dm
f
c
gm bb
with all the dyin' trees i scream
f
c
dm bb

the angels in my dream, yeah
dm
f
c
gm bb
they turned to demons of greed, that's me-e
f
c
where i go i just don't know
dm
bb
i got to, got to, gotta take it slow
f
c
when i have found my peace of mind
dm
am
bb
i'm gonna give ya some of my good time
f

c
dm bb
today love smiled on me
dm
f
c
gm bb
it took away my pains and ple-ads
f
c
dm bb
oh, let your ride be free
dm
f
c
gm bb
you gotta let it be, oh, yeah
f
c
where i go i just don't know
dm
bb
i got to, got to, gotta take it slow
f
c
when i have found my peace of mind
dm
am
bb
i'm gonna give ya some of my good time
[solo]
[riff]
:dm :c
:dm :c
:dm :c
:dm :c

:am
:am
:am
:am

:
:
:
:bb

:
:
:
:

f

c
dm bb
so polite indeed
dm
f
c
gm bb
well i got everything i ne-ed
f
c
dm bb
i'll make my days a breeze
dm
f
c
gm bb
and take away my self-destruction
f

c
it's bitter, baby, and it's very sweet
dm
bb
on a roller coaster, but i'm on my feet
dm
f
take me to the river, let me on your shore
c
gm
bb
well, i'll be coming back, baby, i'll be coming back for more
f
c
doo doo doo ding go sing a dong bong

dm
bb
go ding ba damba somba nomba cong gong ding
dm
f
i cannot forget , but i will not endeavour
c
gm
bb
simple pleasures are more special, but i won't regret it never
f
c
where i go i just don't know
dm
bb
i got to, got to, gotta take it slow
f
c
when i have found my peace of mind
dm
am
bb
i'm gonna give ya some of my good time
f
c
where i go i just don't know
dm
bb
i might end up somewhere in mexico
f
c
when i have found my peace of mind
dm
am
bb
i'm gonna keep ya for the end of time

the zephyr song
vers�o 1
-======am
can i get your hand to write on
g
just a piece of lead to bite on
em
what am i to fly my kite on
f
do you want to flash your light on
am
g
take a look on display
for you
em
f
coming down no not today
am
did you meet your fortune teller
g
get it off with no propellor
em
do it up it's always stellar
f
what a way to finaly smell her
am
g

f

pick it up it's not to strong
em
f
take a piece and pass it on

for you

d
fly away on my zephyr
g
a
i fell it more then ever
d
and in this perfect weather
g
a
we'll find a place together
(am g em f)
fly away my wing
am
riddlin on liberator
g
find a way to be a skater
em
rev it up to levitator
f
super mainly aviator
am
g
take a look on display
em
f
coming down no not today

for you

d
fly away on my zephry
g
a
i fell it more then ever
d
and in this perfect weather
g
a
we'll find a place together
d
in the water where the scent of my emotion
g
a
all the world will pass me by
d
fly away on my zephyr
g
a
am
we'll find a place together
(solo)
am
g
wowowowowowowowowowowowo do you
em
f
yeyeyeyeyeyeyeyeyeyeyeye
am
g
wowowowowowowowowowowowo wont you
em
f
yeyeyeyeyeyeyeyeyeyeyeye
d
fly away on my zephyr

g
a
i fell it more then ever
d
and in this perfect weather
g
a
we'll find a place together
d
in the water where the scent of my emotion
g
a
all the world will pass me by
d
fly away on my zephyr
g
a
d g a
we're gonna live forever
d g a d
forever
_______________________________________________________

vers�o 2
-======/=slide

b=bend

r=bend reverso

h=hammer on

p=pull off

intro:
e|------3---------1---------------------------|
b|----1---------0-------------0---------1-----|
g|--2---------0-------------0---------2-------|
d|------------------------2---------3---------|
a|--------------------------------------------|
e|--------------------------------------------|

riff1
e|----------------------------------------------------------------------|
b|-------5---8--6-5------3---6-5-3-----0---3-1-0------------------------|
g|-----5---5-----------4---4---------0---0--------5-----5-7/9-7---------|
d|---7---------------5-------------2------------------7---------10-9-10-|
a|--------------------------------------------------8-------------------|
e|----------------------------------------------------------------------|
riff2
e|--------------5--------------------------------------------------|
b|-------5---8-----------3---6-5-3-----0---3-1-0-----1-----1~~-----|
g|-----5---5-----------4---4----------0--0----------2-----2--------|
d|---7---------------5--------------2------------3-----3-----------|
a|-----------------------------------------------------------------|
e|-----------------------------------------------------------------|
agora a m�sica:
riff1
can i get your hand to write on

just a piece of lead to bite on
what am i to fly my kite on
do you want to flash your light on
riff2
take a look, it's on display
for you
coming down no not today
riff1
did you meet your fortune teller
get it off with no propellor
do it up it's always stellar
what a way to finaly smell her
riff2
pick it up it's not to strong
take a piece and pass it on

for you

d
fly away on my zephyr
g
a
i feel it more than ever
d
and in this perfect weather
g
a
we'll find a place together
riff1
fly on my wing
riff1
riddlin on liberator
find a way to be a skater
rev it up to levitator
super mainly aviator
riff2
take a look it's on display
coming down no not today

for you

d
fly away on my zephyr
g
a
i feel it more than ever
d
and in this perfect weather
g
a
we'll find a place together
d
in the water where the scent of my emotion
g
a
all the world can pass me by
d
fly away on my zephyr
g
a
we'll find a place together
solo:
e|---12-10-12-12~-12-10-12--------------10-8-10-10~-10-10-10-12-----------------|
b|-------------------------12b12--10-----------------------12b12--10------------|

g|------------------------------------------------------------------------------|
d|------------------------------------------------------------------------------|
a|------------------------------------------------------------------------------|
e|------------------------------------------------------------------------------|
e|---12-10-12-12~----10-12--------------10-8-10-10~-10-10-10-12-----------------|
b|-------------------------12b12--10------------------------12b12--10-----------|
g|---------------------------------------------------------------------9--------|
d|------------------------------------------------------------------------------|
a|------------------------------------------------------------------------------|
e|------------------------------------------------------------------------------|
am
wo
em
ye
am
wo
em
ye

g
wo wo wo wo woo do you
f
ye ye ye ye ye e
g
wo wo wo wo woo won't you
f
ye ye ye ye ye e

d
fly away on my zephyr
g
a
i feel it more than ever
d
and in this perfect weather
g
a
we'll find a place together
d
in the water where the scent of my emotion
g
a
all the world can pass me by
d
fly away on my zephyr
g
a
we're gonna live forever....
d d g a d d g a
forever...
d d g a d d g a
termine com o r� com um l�zinho no dedinho: xx0235

otherside
deu trabalho. mas foi. ou�a cada rifizinho e preste aten��o, pra n�o se perder.
riff da melodia
e|-----------|--------------------|----|--------------|
b|-----------|--------------------|----|--------------|
g|-----------|------------4-------|----|--------------|
d|-----------|--7---7-------7---5-|----|--------------|

a|-7---7---7-|--------------------|-7--|5---5---5-----|
e|-----------|--------------------|----|--------------|
a5

f
c
how long, how long will i slide
e|-----------|--------------------|----|--------------|
b|-----------|--------------------|----|--------------|
g|-----------|------------4-------|----|--------------|
d|-----------|--7---7-------7---5-|----|--------------|
a|-7---7---7-|--------------------|-7--|7---7---7-----|
e|-----------|--------------------|----|--------------|
g5
a5
f
c
sep - ar - ate_ my_ side?_______________________
i don't_
e|-----------|--------------------|------------|--------------|
b|-----------|--------------------|------------|--------------|
g|-----------|--------------------|-------4----|--------------|
d|-----------|--------------------|7--7----7-5-|--------------|
a|-5---5---5-|--7------7----7-7---|------------|7---7---7--7--|
e|-----------|--------------------|------------|--------------|
faz-se isso:
d|---5-------5---------7
g5
a5 f
c
don't_ be - lieve_ it's
bad;_________ slit my throat, its all__
e|-----------|--------------------|------------|--------------|
b|-----------|--------------------|------------|--------------|
g|-----------|--------------------|------------|--------------|
d|-----5-----|--------------------|7--7----7---|-14----14---14|
a|-5---5---5-|--7------7----7-----|------------|--------------|
e|-----------|--------------------|------------|--------------|
g
i ev - er...
verso:
am
e
i heard your voice
through a pho - to - graph
e|-----------|--------8�----------|----------------15�--------|
b|-----------|--------------------|----------12�--------------|
g|-----------|--------------------|---------------------------|
d|-9---9---9-|--------------------|---------------------------|
a|-----------|--------------------|---------------------------|
e|-----------|-5----5-5*---5-5----|12-----12-12----12---12--12|
*fazer string com o dedo m�dio
�deixar soar
am

e
i thought it up it brought up the past
am
e
once you know you can
e|-------8�------|--------------15----|----------8�---------------|
b|---------------|----------12--------|---------------------------|
g|---------------|--------------------|---------------------------|
d|---------------|--------------------|---------------------------|
a|---------------|--------------------|---------------------------|
e|--5--5-5----5-5|-12----12-12------12|5-----5---5----5---5--5----|

e
nev - er go back.
g5
a5
i've got to take_ it on__ the oth - er side_
e|----------------15---|3--------------------|5--------------------------|
b|--------12-----------|3--------------------|5--------------------------|
g|---------------------|4--------------------|5--------------------------|
d|---------------------|5--------------------|7--------------------------|
a|---------------------|5--------------------|7--------------------------|
e|-12--12-12-----12-12-|3--------------------|5--------------------------|
faz-se igual nessas partes.
centuries are what it meant to me
a cemetery where i marry the sea
stranger things could never change my mind
g5
a5
i�ve got to take it on the otherside
g5
a5
take it on the otherside
g5
take it on
a5
take it on

e|------12----|
e|------12----|
e|------12----|

e|--3------------|--------------------|5--------------------------|
b|--3------------|--------------------|5--------------------------|
g|--4-----4------|--------------------|5--------------------------|
d|--5---------5--|--------------------|7--------------------------|
a|--5------------|--------------------|7--------------------------|
e|--3------------|--------------------|5--------------------------|
am
e
pour my life into paper cup
e|-----------|--------------------|----|--------------|
b|-----------|--------------------|----|--------------|
g|-----------|------------4-------|----|--------------|
d|-----------|--7---7-------7---5-|----|--------------|
a|-7---7---7-|--------------------|-7--|7---7---7-----|
e|-----------|--------------------|----|--------------|
am
e
the ashtray's full and i'm spillin' my guts
am
e
she wants to know am i still a slut
e|-------8�------|--------------15----|----------8�---------------|
b|---------------|----------12--------|---------------------------|
g|---------------|--------------------|---------------------------|
d|---------------|--------------------|---------------------------|
a|---------------|--------------------|---------------------------|
e|--5--5-5----5-5|-12----12-12------12|5-----5---5----5---5--5----|
g5
a5
i've got to take_ it on__ the oth - er side_

e|----------------15---|3--------------------|5--------------------------|
b|--------12-----------|3--------------------|5--------------------------|
g|---------------------|4--------------------|5--------------------------|
d|---------------------|5--------------------|7--------------------------|
a|---------------------|5--------------------|7--------------------------|
e|-12--12-12-----12-12-|3--------------------|5--------------------------|
scarlet starlet and she's in my bed
a candidate for my soul mate bled
push the trigger and pull the thread
i�ve
g5
take
g5
take
a5
take

e|------12----|
e|------12----|
e|------12----|

g5
a5
got to take it on the otherside
a5
it on the otherside
it on
it on

ponte:
e5 cmaj7 (3x)
e|---12|
b|---8-|
com distor��o:
e5

turn me on, take
e|---12|
b|---8-|
me for a hard ride....
cmaj7
e5
burn me out, leave me on the oth-er side.
i yell and tell it that it's
(continua-se fazendo o riffzinho acima)
cmaj7
not my friend,_ i tear it down
and it's born a - gain
solo:
b|-10----10---1010-17|17--17-17--17171717-|20-17-17-17----17-17-17|-20-17-17-2017---20--17-

aeroplane
composi��o: king, d., kuchler, c.
intro:

|--3~~------3~~------5~~----6----------------------------|
|--6~~------3~~------3~~-------------3------------5~~----|
|--3~~------3~~------3~~-----------------3--------5~~----|
|--3~~------5~~------3~~--------------------------5~~----|
|--3~~------3~~------3~~--------------------------3~~----|
|--------------------------------------------------------|
|--6~~----5--------------3----3~~------------------------|
|--3~~-----------6------------3~~----------3~~------5~~--|
|--3~~---------------3--------5~~------5---3~~------5~~--|
|--3~~------------------------5~~----------3~~------5~~--|
|--3~~------------------------3~~----------3~~------3~~--|
|--------------------------------------------------------|

chorus:
|-6-6-6-6-6-6-6-6-6-6-6-6-6-6-6-6-6-6-6-6-6-6-6-6-6-6-6-6-6-6-6-6|
|-6-6-6-6-6-6-6-6-6-6-6-6-6-6-6-6-5-5-5-5-5-5-5-5-5-5-5-5-5-5-5-5|
|-5-5-5-5-5-5-5-5-5-5-5-5-5-5-5-5-5-5-5-5-5-5-5-5-5-5-5-5-5-5-5-5|
|----------------------------------------------------------------|
|----------------------------------------------------------------|
|----------------------------------------------------------------|
repeat x6
verse:
|--18---x--18------18---x--18------18--x--18------18---x--18---|
|--18---x--18------18---x--18------17--x--17------17---x--17---|
|--------------------------------------------------------------|
|--------------------------------------------------------------|
|--------------------------------------------------------------|
|--------------------------------------------------------------|
repeat x8
bridge:
|----------------------------------------------------------------|
|-6-6-6-6-6-6-6-6-6-3-3-3-3-3-3-3-3-3-3-3-3-3-3-3-3---3-3-3-3-3-3|
|-3-3-3-3-3-3-3-3-3-3-5-5-5-5-5-5-5-3-3-3-3-3-3-3-3---3-3-3-3-3-3|
|-3-3-3-3-3-3-3-3-3-3-3-3-3-3-3-3-3-3-3-3-3-3-3-3-3-5-5-5-5-5-5-5|
|----------------------------------------------------------------|
|----------------------------------------------------------------|

solo:
|---------------------------17^-----17--15----15-----------------|
|--18^----(18)------18--15-----------------18----18^-------------|
|-------------------------------------------------------17--17---|
|----------------------------------------------------------------|
|----------------------------------------------------------------|
|----------------------------------------------------------------|

|----------------------------------------------------------------|
|----------------------------------------------------------------|
|--15------------------------------------------------------------|
|-------17--15--17---15--17--------------------------------------|
|---------------------------15---15--15--------15^------(15)~~~~-|
|----------------------------------------------------------------|
|----------------------------------------------------------------|
|----------------------------------------------------------------|
|----------------------------------------------------------------|
|----------------------------------------------------------------|
|--15^~~~--15^~~~--15^~~~--15^~~~--15^~~~--15^~~~--15^~~~--15^~~-|
|----------------------------------------------------------------|
|----------------------------------------------------------------|
|----------------------------------------------------------------|
|----------------------------------------------------------------|
|----------------------------------------------------------------|
|--15--13--15^---(16)---15^---15----------15--13^--------13-15-13|
|---------------------------------15--13-----------13-15---------|
|----------------------------------------------------------------|
|----------------------------------------------------------------|
|----------------------------------------------------------------|
|----------------------------------------------------3--5--3--5--|
|------------13------13-15-13--------------3--1-1-3--------------|
|--15--13-15-----15------------15-1^---3------------------------|
|-----------------------------------------------------------6----|
|--------------5-----------------6--8^----(8)------6--6--8-------|
|--3-----3-5^-----3--5--3---57----------------------------------|
|-----5----------------------------------------------------------|
|----------------------------------------------------------------|
|----------------------------------------------------------------|
|--8^----(8)--6--8-8^--8--6--8--6---6----------------------------|
|----------------------------------8--8-6-8-6---6----------------|
|---------------------------------------------7---75-3-5-3--3-3-|
|-----------------------------------------------------------5----|
|----------------------------------------------------------------|
|----------------------------------------------------------------|
|---------------------------3-x----------------------------------|
|----------------------5-3--3-x-5--x-x-x-x-5--5^--5~-------------|
|----3-5------------3--5-3------5--x-x-x-x-5--5^--5~-5^--5-3--4~-|
|--5-------5-3--5-5----------------------------------------------|
|----------------------------------------------------------------|
|----------------------------------------------------------------|
|----------------------------------------------------------------|
|----------------------------------------------------------------|
|-----------------------------------10---------------------------|
|--5--3--5--3--5~~~~~~~~~~~---------9----------------------------|
|-----------------------------------10---------------------------|
|----------------------------------------------------------------|
letra:

-refraoi like pleasure spiked with pain
and music is my aeroplane
it's my aeroplane
songbird sweet and sour jane
and music is my aeroplane
it's my aeroplane
pleasure spiked with pain
that motherfucker's always spiked with pain
looking in my own eyes, hello
i can find the love i want
someone better slap me
before i start to rust
before i start to decompose
looking in
looking in
i can make
i can make

my
my
it
it

rear view mirror
rear view mirror
disapear
disapear, have no fear

-repete o refraositting in my kitchen redgirl
i'm turning into dust again
my melancholy baby
the star of mazy must
push her voice inside of me
i'm overcoming
i'm overcoming
it's easy when
it's easy when
saddle up me

gravity
gravity
you're sad to be
you're sad

-repete o refraojust one note could make me float
could make me float away
one note from the song
she wrote could fuck me where i lay
just one note could make me choke
one note that's not a lie
just on enote could cut my throat
one note could make me die
-repete o refrao-

a day in the life

(lennon/mccartney)
g
g
c
g
c
c

bm

em

c

bm
em
em/d
i read the news today oh boy,
em
asus2
about a lucky man who made the grade.
bm
em
and though the news was rather sad,
f
em
em/d
well i just had to laugh,
f
em
c
i saw the photograph.

em/d

g

bm
em
em/d
he blew his mind out in a car,
c
em
asus2
he didn't notice that the lights had changed,
g
bm
em
em/d
a crowd of people stood and stared,
c
f
they'd seen his face before,
em
em/d
c
nobody was really sure if he was from the house of lords.
g

bm
em
em/d
i saw a film today oh boy
c
em
asus2
the english army had just won the war
g
bm
em
em/d
a crowd of people turned away
c
f
but i just had to look
em
em/d
c
having read the book
d/f#
i'd love to turn

em
you

g
am
on....

bm

c

d em

(orchestral climax leading to an e chord)
e
d
woke up, fell out of bed, dragged a comb across my head
e
b7
found my way downstairs and drank a cup
e
b7
and looking up, i noticed i was late
e
d
found my coat and grabbed my hat, made the bus in seconds flat
e
b7
found my way upstairs and had a smoke
e
b7
and somebody spoke and i went into a dream
c
g
aah ah ah ah
c
g

d
aah ah ah
d

a
ah ah
a

e
e

d

c

d

g

aah ah ah ah

aah ah ah

ah ah

g

bm
em
em/d
i read the news today oh boy,
c
em
asus2
four thousand holes in blackburn, lancashire.
g
bm
em
em/d
and though the holes were rather small,
c
f
they had to count them all,
em
em/d
c
now they know how many holes it takes to fill the albert hall.
d/f#
i'd love to turn

em
you

g am
on

bm

c

d

em

(orchestral climax leading to a massive e chord)
-----------------------------------------------------------------------obs.: na parte orquestral, no trecho que vai do g ao d (g am bm
c d) fica 1/2 compasso em cada acorde. j� no em (tamb�m da orquestra)
fica 8 compassos.

all my loving
solo:
e|------------------5-------9--7--5--4-----4--b|----------------------7---------------5-----g|------------------6-------9--8--6--4-----4--d|----------------------7---------------6-----a|-2----------0-------------------------------e|----0--2-4----------------------------------e|--7--5--4--2----2----9--------9---0------------------------------------b|-------------2-----------10-----------0--------0--------0-------0------g|--9--8--4--2----2----11-------11--1------0h1-----0h1-------0h1---------d|-------------4-----------12-----------------------------------------2--a|--------------------------------------------------------------------2--e|-----------------------------------------------------------------------baixo:
g|-------------------------------------------------------------d|-4-2-1-----------------------------2---4---------------------a|-------4-2-0---------2-3-4---4---4---4----4--5---2-0---------e|-------------4-2-0-4-------5---5---------------------4-2-...--

f#m
b7
close your eyes and i'll kiss you
e
c#m
tomorrow i'll miss you
a
f#m
d
b7
remember i'll always be true
f#m
b7
and then while i'm away
e
c#m
i'll write home every day
a
b7
e
and i'll send all my loving to you
f#m
b7
i'll pretend that i'm kissing
e
c#m
the lips i am missing
a
f#m
d
b7
and hope that my dreams will come true
f#m
b7
and then while i'm away
e
c#m
i'll write home every day
a
b7
e
and i'll send all my loving to you
c#m
c#m7+
e*
all my loving i will send to you
c#m
c#m7+
e*
all my loving, darling i'll be true
solo: a a e e f#m b7 e e
close your eyes and i'll kiss you
tomorrow i'll miss you
remember i'll always be true
and then while i'm away
i'll write home every day
and i'll send all my loving to you
all my loving, i will send to you
all my loving, darling i'll be true
c#m
c#m7+
e*
all my loving......, all my loving
c#m
c#m7+
e*
e
all my loving, i will send to you

e*: e|---|---|---|-1-|---|---|---|
b|---|---|---|-1-|-2-|---|---|
g|---|---|---|-1-|---|---|---|
d|---|---|---|---|---|-3-|---|
a|---|---|---|---|---|---|-4-|
e|---|---|---|---|---|---|---|

day tripper
esta introdu��o � tocada 5x antes de entrar o vocal
e|-------------------------|
b|-------------------------|
g|-------------------------|
d|-----------2-0---4---0-2-|(riff 1)
a|---------2-----2---2-----|
e|-0---3-4-----------------|
as vezes este riff varia
e|-------------------------|
b|-------------------------|
g|-----------2-0---4---0-2-|
d|---------2-----2---2-----|(riff 2)
a|-0---3-4-----------------|
e|-------------------------|
solo
b7
e|-------------------------|
b|-------------------------|
g|-----------4-2---6---2-4-|
d|-----0-1-4-----4---4-----|(3x)
a|-2-----------------------|
e|-------------------------|
este trecho do solo nao chega a estar perfeito, mas da uma boa enganada
e|-------------------------------10----10-12-12/14-12-10------14---14---14~~~-|
b|----------------10^---------12----12-------------------12-------------------|
g|-----7---9-9/11-----9/7-----------------------------------------------------|
d|-9-9---9----------------9---------------------------------------------------|
a|----------------------------------------------------------------------------|
e|----------------------------------------------------------------------------|
(riff
e7
got a
(riff
a7
got a

1)

good reason, for taking the easy way out
2)
(riff 1)
e7
good reason, for taking the easy way out
f#5
she was a day____ tripper, one way ticket yeah
a7
g#7
c#5
b5
it took me so____ long to find out, and i found out

she's a
she's a
she's a
it took

big teaser, she took me half the way there
big teaser, she took me half the way there
day tripper, one way ticket, yeah
me so long to find out, and i found out

solo: b7
tried to please her, but she only played one night stands
tried to please her, but she only played one night stands
she was a day tripper, sunday driver, yeah
it took me so long to find out, and i found out

i'm only sleeping
john lennon / paul mccartney
afine sua guitarra ou violao em d#
assim:
e=d#
a=g#
d=c#
g=f#
b=a#
e=d#
em
am
g
c
g
b7
when i wake up early in the morning, lift my head i'm still yawning
em
am
g
c
g
b7
when i'm in the middle of a dream, stay in bed float upstream (float upstream)
g
am
bm
please don't wake me no don't shake me leave me where i am
am
c7+
i'm only sleeping
em
am
g
c
g
b7
everybody seems to think i'm lazy, i don't mind i think they're crazy
em
am
g
c
g
b7
running everywhere at such a speed 'til they find there's no need (there's no
need)
g
am
bm
please don't spoil my day i'm miles away and after all
am
c7+
i'm only sleeping

dm
e7
am
keeping an eye on the world going by my window,
dm
taking my time

am7

em
am
g
c
g
b7
lying there and staring at the ceiling, waiting for a sleepy feeling
g
am
bm
please don't spoil my day i'm miles away and after all
am
i'm only sleeping

c7+

cookie jar
a m�sica inteira � F#m c#m b c#m (tocado nessa ordem)
a m�sica tambem tem um break, tocando assim:
e|--------------|--------------------|--------------|--------------|
b|--------------|--------------------|--------------|--------------|
g|--------------|--------------------|--------------|--------------|
d|--------------|------4h6-4---------|--------------|--------------|
a|--------------|--4h7-------7-------|--------------|--------------|
e|--------------|--------------------|--------------|--------------|
� bem f�cil...se voc� escutar a m�sica, fica ainda mais f�cil pra conciliar o
break e a batida!
and i would turn on the tv, but it's so embarrassing,
to see all the other people, i dont know what they mean,
it was magic at first, when they spoke without sound,
but now this world is gonna hurt, you better turn that thing down,
turn it around,
it wasn't me, says the boy with the gun,
sure i pulled the trigger, but it needed to be done,
because lies been killing me ever since it begone,
you can't blame me because im too young,
you can't blame me, sure the killer was my son,
but i didn't teach him to pull the trigger of the gun,
it's the killing on his tv screen,
you cant blame me, it's those images he seen,
well you can't blame me says the media man,
well i wasn't the one who came up with the plan,
and i just point my camera at what the people want to see,

man it's a two way mirror and you can't blame me,
you can't blame me, says the singer of the song,
or the maker of the movie which he based his life on,
it's only entertainment, as anyone can see,
it's smoke machines and makeup, man you can't fool me,
it was you, it was me, it was every man,
we've all got the blood on our hands,
we only receive what we demand,
and if we want hell then hells what well have,
and i would turn on the tv, but it's so embarrassing,
to see all the other people, don't even know what they mean,
it was magic at first, but let everyone down,
and now this world is gonna hurt, you better turn it around,
turn it around

taylor
intro
e|--------------------------------------x-----------------x--------------------------b|-------x------------------------------x-----------------x--------------------------g|-------x------------------------------x-----------------x--------------------------d|-------x------------------------------x------------------x---x-1h3p1--1p0----------a|-x-1h3-x-x-x-1h3p1---1-----1----------x-------1--2-x-2h3-x-x---------3----3p0------e|-------------------3---------3p2-0-1-1-x-1h2h3------------x--------------------0-1-1e|-----------------------------------------------------------------x-xx----0-----|
b|-----------------------------x------------------------x----4-4---x-xx----1-----|
g|-----------------------------x------------------------x----2-2---x-xx----0-----|
d|-----------------------------x-3-3/5-3h0--2p0---------x----3-3---x-xx----2-----|
a|-x----1-----1-----1-----1-3--x-----------------3p0----x----3-3---x-xx----3-----|
e|--1h3---1h3---1h3---1h3----------------------------1-1-------------------------|
e|--0-0-0---0-0--0-0--0---------0-|
b|--1-3-3/5-5/3--3/1--1---------1-|
g|--0-0-0---0-0--0-0--0--5p3p0--2-|
d|------------------------------3-|
a|--------------------------------|
e|--------------------------------|
verso
e|------------------------------------------|
b|--1111xxxxx-1111xxxxx-1111xxxxx-1111xxxxx-|
g|--0000xxxxx-0000xxxxx-2222xxxxx-2222xxxxx-|
d|--2222xxxxx-2222xxxxx-2222xxxxx-3333xxxxx-|

a|--33333p0-0-22223p0-0-00003p0-0-33333p0-0-|
e|------------------------------------------|
riff 1
e|---------------------------------------------------------|
b|--1--1-1--1-1-/-3--3-3--3-3-/-6--6-6--6-6-/-8--8-8--8-8--|
g|--0--0-0--0-0-/-0--0-0--0-0-/-0--0-0--0-0-/-0--0-0--0-0--|
d|--2--2-2--2-2-/-4--4-4--4-4-/-7--7-7--7-7-/-9--9-9--9-9--|
a|--3--3-3--3-3-/-5--5-5--5-5-/-8--8-8--8-8-/-10-1010-1010-|
e|---------------------------------------------------------|
verso:
they say taylor was a good girl, never one to be late
complain, express ideas in her brain
working on the night shift, passing out the tickets,
youre gonna have to pay her if you want to park here
well mommys little dancer has quite a little secret
working on the streets now, never gonna keep it
its quite an imposition and now shes only wishing
that she would have listened to the words they said
poor taylor
refr�o: (c - g : - am - f)
she just wanders around, unaffected by
the winter winds here and shell pretend that
shes somewhere else, so far and clear
about two thousand miles from here
verso:
peter patrick pitter patters on the window
but sunny silhouette wont let him in
poor old petes got nothing 'cause hes been falling
somehow sunny knows just where hes been
he thinks that singing on sunday is gonna save his soul
now that saturday is gone
sometimes he thinks that hes on his way
but i can see that his break lights are on
refr�o: (c - g : - am - f)
he just wanders around, unaffected by
the winter winds here and hell pretend that
hes somewhere else, so far and clear
about two thousand miles from here
verso:
such a tough enchilada filled up with nada
giving what she gotta give to get a dollar bill
used to be a limber chicken, times a been a ticking
nows shes finger licking to the man
with the money in his pocket flying in his rocket
only stopping by on his way to a better world
riff 1
if taylor finds a better world
then taylor's gonna run away

intro

the horizon has been defeated
riff1
f#
b
e
f#
e|---2-----7----7-----2---------b|---2-----7----9-----2---------g|---3-----8----9-----3---------d|---4-----9----9-----4---------a|---4-----9----7-----4---------e|---2-----7----7-----2---------riff2
c#
b
f#
e|---2-----7----2--b|---2-----7----2--g|---3-----8----3--d|---4-----9----4--a|---4-----9----4--e|---2-----7----2--letra
riff1
the horizon has been defeated
by the pirates of the new age
alien casinos, well maybe it�s just time to say
things can go bad, make you wanna run away
c# ~
but as we grow older, the trouble just seems to stay
riff1
future complications in the strings between the cans
but no prints can come from fingers, if machines become our hands
and then our feet become the wheels, and then the wheels become the cars
c# ~
and the rigs begin to drill until the drillings goes too....far
riff1
things can go bad, make you wanna run away
but as we grow older, the horizon begins to
riff2
fade, fade, fade
fade away
riff1
but thingamajings are puzzles

anger, don't you step too close
cause people are lonely and only animals with fancy shoes
riff1
and hallelujahs zig zag nothing, misery is hard to lose
cause people are lonely and only animals with too many tools
c#~
that can make all the junk that we sell
aw, some time, man, make you wanna yell
riff1
things can go bad, make you wanna run away
but as we grow older, the horizon begins to
riff2
fade..away
riff2
fade away
fade fade fade
fade fade fade

traffic in the sky
riff 1 :
d
f#m
c
e|-------------------|---------------------------|------------------------|
b|-----7------7------|----10----------10---------|----5--------5----------|
g|-------7------7----|--------11----------11-----|-------5--------5-------|
d|----------7--------|------------11-------------|-----------5------------|
a|--5-------------5--|-9---------------------9---|--3------------------3--|
e|-------------------|---------------------------|------------------------|
em
e|----------------------------|
b|----8---------8-------------|
g|-------9----------9---------|
d|-----------9----------------|
a|--7--------------------7----|
e|----------------------------|
riff 2 : ( a

g#

g

a

d

bm

g

a

d

bm

g )

riff 1
there�s traffic in the sky and it doesn�t seem to be getting much better
there�s kids playing games on the pavement drawing waves on the pavement mmm hmm
shadows of the planes on the pavement mmm hmm
it�s enough to make me cry
but that don�t seem like it will make it feel better
maybe it�s a dream and if i scream
it will burst at the seams
whole place would fall into pieces

riff 2
and then they�d say
well how could we have known
i�ll tell them it�s not so hard to
tell nah nah nah
you keep adding stones soon the water will
be lost in the well mmmm mmmm
riff 1
and puzzle pieces in the ground
no one ever seems to be digging
instead they�re looking up towards the heavens
with their eyes on the heavens
mmm hmmm
the shadows on the way to the heavens
mmm hmm
it�s enough to make me cry
that don�t seem like it will make it feel better
the answers could be found
we could learn from digging down
but no one ever seems to be digging
riff 2
instead they�ll say
well how could we have known
i�ll tell them it�s not so hard to tell
nah nah nah
you keep adding stones
soon the water will
be lost in the well
mmmm mmmm
riff 1
and words of wisdom all around
but no one ever seems to listen
they�re talking about the plans on the paper
building up from the pavement
mmm hmm
the shadows from the scrapers on the pavement
mmm hmm
it�s enough to make me sigh
but that don�t seem like it will make it feel better
the words are all around
but the words are only sounds
and no one ever seems to listen
riff 2
instead they�ll say
well how could we have known
i�ll tell them it�s really not so hard to tell
nah nah nah

you keep adding stones
soon the water will
be lost in the well
lost in the well
d
mmmm mmmm mmmm
a
: 5 7 7 6 5 5 ( 2 varia��o )
b : 2 4 4 3 2
(
normal
)
c
: 3 5 5 5 3
( 4 varia��o )
d
: 5 7 7 7 5
( 4 varia��o )
em : 7 9 9 8 7
( 7 varia��o )
f#m : 9 11 11 10 9 ( 4 varia��o )
g
: 3 5 5 4 3 3 ( 3 varia��o )
g# : 4 6 6 5 4 4 ( 3 varia��o )

blitzkrieg bop
[ a d e

a d e

hey ho, let's go

a d e

a d a

(2x) ]

(4x)

a

d e

they're forming in straight line
a

d e

they're going through a tight wind
a

d e

the kids are losing their minds
a

d a

the blitzkrieg bop
=20
they're piling in the back seat
they're generating steam heat
pulsating to the back beat
the blitzkrieg bop
=20

d
hey ho, let's go
a

d a

shoot'em in the back now
d
what they want, i don't know
b

d

e

they're all reved up and ready to go.
=20
they're forming...
they're piling...
=20
hey ho, let's go...
=20
they're forming...
they're piling...
=20
hey ho, let's go

(4x)

i wanna be sedated
[ d#5 e5

d#5 e5 ]

e5
a5
e5
twenty-twenty-twenty four hours to go i wanna be sedated
a5
e5
nothin' to do and no where to go-o-oh i wanna be sedated
b5
e5
just get me to the airport put me on a plane
b5
e5
hurry hurry hurry before i go insane

b5
e5
i can't control my fingers i can't control my brain
a5
b5
oh no no no no no
[ d#5 e5

d#5 e5 ]

e5
a5
e5
twenty-twenty-twenty four hours to go i wanna be sedated
a5
e5
nothin' to do and no where to go-o-oh i wanna be sedated
b5
e5
just put me in a wheelchair and put me on a plane
b5
e5
hurry hurry hurry before i go insane
b5
e5
i can't control my fingers i can't control my brain
a5
b5
oh no no no no no
e5

a5

b5

e5

[ d#5 e5 d#5 e5 ]
f#5
b5
f#5
twenty-twenty-twenty four hours to go i wanna be sedated
b5
nothin' to do and no where to go-o-oh i wanna be sedated
c#5
f#5
just put me in a wheelchair get me to the show
c#5
f#5
hurry hurry hurry before i gotta go
c#5
f#5
i can't control my fingers i can't control my toes
b5
c#5
oh no no no no no
[ f5 f#5 f5 f#5 ]
f#5
b5
f#5
twenty-twenty-twenty four hours to go i wanna be sedated
b5
nothin' to do and no where to go-o-oh i wanna be sedated
c#5
f#5
just put me in a wheelchair get me to the show
c#5
f#5
hurry hurry hurry before i gotta go
c#5
f#5
i can't control my fingers i can't control my toes
b5
c#5
oh no no no no no
f#5
ba-ba-bamp-ba
f#5

b5
c#5
f#5
ba-ba-ba-bamp-ba i wanna be sedated
b5
c#5
f#5

ba-ba-bamp-ba
f#5
ba-ba-bamp-ba
f#5
ba-ba-bamp-ba

ba-ba-ba-bamp-ba i wanna be sedated
b5
c#5
f#5
ba-ba-ba-bamp-ba i wanna be sedated
b5
c#5
f#5
ba-ba-ba-bamp-ba i wanna be sedated

et sematary
vers�o 1
-======intro
d5
c/e
e|----------------------|----------------------------------------------|
b|-----3----------1-----|-----1----------------------------------------|
g|-------------0-----0--|----------------------------------------------|
d|--0-----0-2-----------|--3-------------------------------------------|
a|----------------------|----------------------------------------------|
e|----------------------|----------------------------------------------|
for the part below i'm only indicating the chords. pick the cd and follow
the beat. this part repeats with different lyrics in all verses.
c5
d5
and the night when the cold wind blows
c5
no one

d5
cares

no-body

bb5
knows

c

for the chorus below you just have to follow the beat as well.
dm
f
i don't wanna be buried

c
bb
in a pet sematary

dm
c
bb
i don't want to live my life again

c

here's the solo (it seems to me there's a slight synth doubling the
guitar. am i right?)
i'm also tabbing the rythm behind the solo in case you have a buddy
playing along with a second guitar.
e|------------|------------|------------|------------|------------|---------|
b|-----______-|------------|------------|------------|-----______-|---------|
g|----/-------\------------|------------|------------|----/-------\---------|

d|---/--------|\-----------|--0---------|--0--2--3---|---/--------|\--------|
a|--1---------|-1----------|------------|------------|--1---------|-1-------|
e|------------|------------|------------|------------|------------|---------|
|
bb5
a5
d5
bb5
a5
e|------------|------------|------------|------------|------------|---------|
b|------------|------------|------------|------------|------------|---------|
g|------------|---repeat---|----7-------|---repeat---|------------|--repeat-|
d|-8-8-8-7/8-8|-----as-----|----7-------|---the d5---|-8-8-8-7/8-8|--the----|
a|-8-8-8-7/8-8|---previous-|----5-------|------------|-8-8-8-7/8-8|--bb5 &--|
e|-6-6-6-5/6-6|------------|------------|------------|-6-6-6-5/6-6|--a5-----|
e|------------|------------|-------______------------|------------|---------|
b|------------|------------|-----/------|\-----------|------------|---------|
g|------------|------------|---/--------|--\---------|------------|---------|
d|------------|--5--3--2---|--3---------|---3--------|------------|---------|
a|-3----------|--7--5--3---|--5---------|---5--------|------------|---------|
e|------------|------------|------------|------------|------------|---------|
|
c5
e|------------|------------|------------|------------|------------|---------|
b|------------|------------|------------|------------|------------|---------|
g|--5---------|--repeat----|--here the second guitar goes---------|---------|
d|--5---------|--the c5----|--back to the verse------|------------|---------|
a|--3---------|------------|------------|------------|------------|---------|
e|------------|------------|------------|------------|------------|---------|
chord fingering (where not indicated)
c5
d5
bb5
dm
f
c
bb
e|------|------|-----|--10--|---8--|---8--|--6--|------|
b|------|------|-----|--10--|--10--|---8--|--6--|------|
g|------|------|-----|--10--|--10--|---9--|--7--|------|
d|--10--|--12--|--8--|--12--|--10--|--10--|--8--|------|
a|--10--|--12--|--8--|--12--|---8--|--10--|--8--|------|
e|---8--|--10--|--6--|--10--|------|---8--|--6--|------|
finally the lyrics
under the arc of a weather stain boards
ancient goblins, and warlords
come out of the ground, not making a sound
the smell of death is all around.
and the night when the cold wind blows
no one cares, nobody knows
i don't wanna be buried
in a pet sematary
i don't want to live my life again
follow victor to the sacred place
this ain't a dream, i can't scape
molars and fangs, the clicking of bones
spirits moaning among the tombstones

and the night, when the moon is bright
someone cries, something ain't right
the moon is full, the air is still
all of a sudden i feel a chill
victor is grinning, flesh rotting away
skeletons dance, i curse this day
and the night, when the wolves cry out
listen close and you can hear me shout
_______________________________________________________

vers�o 2
-======intro & versos:
d5
c/e
e|------------------------------|
b|-----3-----------1---------1--|
g|--------------0-----0---------|
d|--0-----0--2------------3-----|
a|------------------------------|
e|------------------------------|

[ 2x para a introdu��o ]
[ e 1x para cada linha do verso ]
[ ou: d e c ]

[verso 1]
[ riff ]
under the arc of a weather stain boards
ancient goblins, and warlords
come out of the ground, not making a sound
the smell of death is all around
[ponte 1]
c
d
and the night when the cold wind blows
c
d
bb
c
no one cares, no-body knows
[refr�O] 2x
d
f
c
bb
i don't wanna be buried in a pet sematary
d
c
bb
c
i don't want to live my life again

[verso 2]

[ riff ]
follow victor to the sacred place
this ain't a dream, i can't escape
molars and fangs, the clicking of bones
spirits moaning among the tombstones
[ponte 2]
c
d
and the night, when the moon is bright
c
d
bb
c
someone cries, something ain't right
[refr�O] 2x
d
f
c
bb
i don't wanna be buried in a pet sematary
d
c
bb
c
i don't want to live my life again
[solo]
bb
d
bb
c
e|--------------------------------------------|
b|--------------------------------------------|
g|--------------------------------------------|
d|-------0----0--2--3-------------5--3--2-----|
a|--1-------------------1----3----7--5--3-----|
e|--------------------------------------------|
[verso 3]
[ riff ]
the moon is full, the air is still
all of a sudden i feel a chill
victor is grinning, flesh rotting away
skeletons dance, i curse this day
[ponte 3]
c
d
and the night, when the wolves cry out
c
d
bb
c
listen close and you can hear me shout
[refr�O] 2x
d
f
c
bb
i don't wanna be buried in a pet sematary
d
c
bb
c
i don't want to live my life again . . .
[final]
'n�o consegui entender bem os acordes do final porque tem um pianinho
que fica tocando algo do tipo:

d|-0--2-3-5-0--7-5-3-0--| tab
ali�s no refr�o tamb�m, o que me leva a concluir que seriam os acordes
deste at� desaparecer...'
d
f
c
bb
oh no,
oh oh no...
d
c
bb
c
i don't want to live my life...again...

/

/

3 vezes no total...

london calling
i play this one differently from the posting at
the archive. corrections welcome. turn the treble way up for best
mick jones (or maybe mr. strummer) sound. no solo except for
heavy feedback on a high b note (listen to the record).
chords:
em
am7 g
d
7-----8----7----5----------------------------------------------8-----8----8----7----------------------------------------------9-----9----7----7----------------------------------------------9-----7----9----7----------------------------------------------7---------------5-------------------------------------------------------------------------------------------------------intro:
em
am7

g

am7

em
am7
london calling to the faraway towns
em
g
now that war is declared and battle come down
em
am7
london calling to the underworld
em
g
come out of the cupboard, all you boys and girls
em
am7
london calling, now don't look to us
em
g
phony beatlemania has bitten the dust

em
am7
london calling, see we ain't got no swing
em
g
except for the ring of that truncheon thing
em
g
the ice age is coming, the sun's zooming in
em
g
meltdown expected the wheat is growing thin
em
g
engines stop running but i have no fear
em
em7
d
cuz london is drowning and i live by the river
em

am7

london calling to the imitation zone
forget it brother, you can got it alone
london calling to the zombies of death
quit holding out and draw another breath
london calling and i don't wanna shout
but while we were talking i saw you noddin' out
london calling, see we ain't got no highs
except for that one with the yellowy eyes
the ice age is coming, the sun's zooming in
engines stop running the wheat is growing thin
a nuclear error but i have no fear
cuz london is drowning and i live by the river
now get this
london calling, yes i was there too
an' you know what they said - well some of it was true!
london calling at the top of the dial
an' after all this, won't you give me a smile?
em
i never felt so much a' like...

should i stay or should i go
tom: d
1 = d-d-d-g-g-g-g-d
2 = g-g-g-f-f-f-f-g
3 = a-a-a-a-a-a-a-a
intro
-----

1+ = d-d-d-d-d-d-d-d
2+ = g-g-g-f-f-f-f-g
3+ = a-a-a-a-a-a-a-a
1 just 1 guitar
1
"
1with bass and drums

1
----------darling you gotta let me know
should i stay orshould i go
if you say that your are mine
i'll be here 'til the end of time
so you gotta let me know
should i stay or should i go
-----------it's always tease tease tease
you're happy when i'm on my knees
one day is fine the next is black
so if you want me up your back
wow ! come on and let me know
should i stay or dhould i go
the
chorus
------should i stay or should i go now
should i stay or should i go now
if i go there will be trouble
and if i stay it will be double
so you gotta let me know
...............................

"
1
1
2
1

3
1
1

1
2

1
3
1
music stops

3+

music starts again, fast part
1+
2+
1+
1

(not 1+)

-----------------this indecision bothers me
1 |
esta undecision me molesta
if you don't want me set me free
1 |
si no quieres librame
exactly who i'm supposed to be
2 |
diga me que tengo ser
don't you which clothes even fit me
1 |
seves que robas me querda
come on and let me know
3 |
me tienes que desir
should i cool it or should i blow
1 |
me debo ir o quedarme
like first part, same music + screaming
--------------------------------------chorus
fast part
------------should i stay or should i go now
|
yahouh !
should i stay or should i go now
|
yeepeee!
if i go there will be trouble
|
si me voy - va peligro
and if i stay it will be double
|
me quedo is double
so you gotta let me know
|
me tienes que desir
should i cool it or should i blow
|
me debo ir o quedarme
chorus again
------should i stay or should i go now (x 2)
| fast part too. play 1+, 2+ and 3+
if i go there will be trouble
and if i stay it will be double
so you gotta let me know
should i stay or should i go

rock the casbah
tom: a7
a7
em7
now, the king told the boogie men,
g7
dm7
you have to let that raga drop.
a7
the oil down the desert way
g7
has been shaking to the top.

em7
dm7

a7
em7
the sheik he drove his cadillac
g7
dm7
he went a cruisin down the ville.
a7
the muezzin was a standing

em7

fmaj7
on the radiator grille.
chorus:
dm7
a7
shareef don't like it.

g7

em7
fmaj7 em7
a7
rock the casbah. rock the casbah.
dm7
a7
shareef don't like it.

g7

em7
fmaj7
em7
a7
rock the casbah. rock the casbah.
by order of the prophet
we ban that boogie sound.
degenerate the faithful
with that crazy casbah sound.
but the bedouin, they brought out the electric camel drum.
the local guitar picker got his guitar picking thumb.
as soon as the shareef had cleared the square,
they began to wail.
chorus
now over at the temple
oh, they really pack em in.

the in crowd say it's cool
to dig this chanting thing.
but as the wind changed direction
and the temple band took five
the crowd got a whiff
of that crazy casbah jive.
chorus
the king called up his jet fighters,
he said, you better earn your pay.
drop your bombs down between the minarets
down the casbah way.
as sson as the shareef was chauffered out of there,
the jet pilote tuned to the cockpit radio blare.
as soon as the shareef was outta their hair
the jet pilots wailed.
chorus to extro.

train in vain
tom: d
intro riff:
------------------------------------------------------------------------------------------------7------7---------7-----7------------------------------------5------5---5-----5-----5---5--d a a
d a a
you say you stand
by your man
d a a
d a a
tell me something
i don't understand
d
bm
you said you loved me, and that's a fact
d a a
d a a
the you left me,
said you felt trapped
d
a
well, some things you can't explain away
bm
d
but the heartache's with me till this day
d a a
you didn't stand by me
d a a
no, not at all
d a a
you didn't stand by me
d a a
no way
all the times when we were close
i'll remember these things the most

i see all my dreams come tumblin' down
i can't be happy without you around
so alone, i keep the wolves at bay
and there's only one thing i can say
[chorus]
[bridge:]
a
f#m bm
d a a d a a
you must expla-a-a-ain
why this must be
a
f#m bm
d a a d a a
did you li-i-i-ie when you spoke to me?
d a a
d a a
did you stand be me?
no, not at all
now i got a job, but it don't pay
i need new clothes, i need somewhere to stay
but without all of these things i can do
but without your love, i won't make it through
but you don't understand my point of view
i suppose there nothing i can do
[chorus]
[bridge]
[intro riff again]

father to a sister a though
intro: g

dm

c

g
rotten device, i'll say it twice
dm
c
g
unto much and too much comfort in here
dm
c
cost too much, too much to relieve you
g
everywhere eyes no where to die
dm
c
g
no place to shove your sharpened heel
dm
c
i'm looking, looking for an
em
am
g
italian face in case you wanted to go
dm
c
am
g
i know, i'm reeling in to the end
solo ( g dm c )
g
call and rebuff talking so tough
dm
c
g
good bye to the ugly steepl here
dm
c
good times for ever after
g

i'm just a man, you see who i am
dm
c
i find with my hooks and open my books
g
dirty blacke cloud
dm
c
angel of corpus christi
em
am
g
you're so misty tell me what i want to hear
dm
c
am
g
i know, i'm reeling in
dm
c
am
g
i know, i'm reeling into the end.
solo ( g dm c am )
riff final
e------------------------------------------------|
b------------------------------------------------|
g------------------------------------------------|
d-----5---5-3-3-------------5---5-3-3------------|
a---------------5-3-5-5-3-3---3------------------|
e-3-3---3-----------------------------5-3-5-5-3--|
acordes:
g dmemc am-

320033
xx0231
022000
x32010
x02210

grounded
guitarra1
repete durante toda a introdu��o
e--7--|--7--7--7--7--7--7--7--7--7--|
b--5--|-----------------------------|
g--6--|-----------------------------|
d--7--|-----------------------------|
a-----|-----------------------------|
e-----|-----------------------------|
guitarra2 ( 2x ) 00:15 (acompanhada pelo baixo)
e-7--7--7--7--7--7--7--5--7--7--7--5--4--4--4--5--4--4--4--4--4--4--4--5-b-------------------------------------------------------------------------

g------------------------------------------------------------------------e---7--7--7--5--4--4--4--5--|
b---------------------------|
g---------------------------|

in�cio da parte cantada. 00:43 ( onde entram os acordes )
acordes
baixo
e--x--|--0--|--0--|
g----------------------------|
b--2--|--0--|--0--|
d----------------------------|
g--2--|--2--|--1--|
a--5-5-5-5-5-5--0-0-0--------|
d--0--|--2--|--2--|
e---------------------0-0-0--|
a-----|--0--|--2--|
e-----|--x--|--0--|
1:08 entram os efeitos
efeitos
harm�nico 1:23
e--7--7--|--5--5--|--5--7-|--7--|---(12)-----(7)--|
b--7--7--|--5--5--|--7--5-|--5--|-----------------|
g--------|--------|-------|--6--|-----------------|
d--------|--------|-------|-----|-----------------|
solo 1:34
e---------------------------------|
b---------------------------------|
g--4--4--4--4--4--4--5--5^--2--1--|
d------------------------------2--|
a------------------------------2--|
e---------------------------------|
1:58 segunda parte
guitarra1
e--x--|--0--|--0--|
b--2--|--0--|--0--|
g--2--|--2--|--1--|
d--0--|--2--|--2--|
a-----|--0--|--2--|
e-----|--x--|--0--|

obs: o sinal ^ representa um
bend de meio tom. (uma nota acima)

baixo
g----------------------------|
d----------------------------|
a--5-5-5-5-5-5--0-0-0--------|
e---------------------0-0-0--|

guitarra2
2:03 riff1
e------------------|
b------------------|
g---------1--2--1--|
d------2-----------|
a------------------|
e------------------|
2:23 efeitos
harm�nico
e--7--7--|--5--5--|--5--7-|--7--|---(12)-----(7)--|
b--7--7--|--5--5--|--7--5-|--5--|-----------------|
g--------|--------|-------|--6--|-----------------|
d--------|--------|-------|-----|-----------------|

solo 2:48
e---------------------------------|
b---------------------------------|
g--4--4--4--4--4--4--5--5^--2--1--|
d------------------------------2--|
a------------------------------2--|
e---------------------------------|
final 3:13
(como na introdu��o junto com o baixo)
guitarra 1
e--7--7--7--7--7--7--7--7--7--|
b-----------------------------|
g-----------------------------|
d-----------------------------|

obs: o sinal ^ representa um
bend de meio tom. (uma nota acima)

baixo
g----------------------------|
d----------------------------|
a--5------------0------------|
e---------------------0------|

guitarra 2 3:33
e--5--7-7-7-7-7--5--7-7-7-7-7-|
b-----------------------------|
g-----------------------------|
d-----------------------------|
final 3:40
guitarra 1
e--7--7--7--7--7--7--7--7--7--|
b-----------------------------|
g-----------------------------|
d-----------------------------|
guitarra2
e-7--7--7--7--7--7--7--5--7--7--7--5--4--4--4--5--4--4--4--4--4--4--4--5-b------------------------------------------------------------------------g------------------------------------------------------------------------e---7--7--7--5--4--4--4--5--|
b---------------------------|
g---------------------------|
guitarra 3 (efeitos)
e--7--7--|--5--5--|--5--7-|--7--|
b--7--7--|--5--5--|--7--5-|--5--|
g--------|--------|-------|--6--|
d--------|--------|-------|-----|

intro...
00:43
d4/9
a9
e
doctors leaving for the holiday season
d4/9
a9
e
got crystal ice picks no gift for the gab
d4/9
a9

and in the parking lots
e
is the sedan he bought
d4/9
a9
e
he never, he never complains when it's hot
1:08 (entram os efeitos)
d4/9
a9
he fowled a swollen daughter in a sauna
e
d4/9
a9
e
up on tucson bridge
d4/9
a9
there soaking up the fauna doing blotters
e
d4/9
a9
i don't know which which which
e
d4/9 (1:34 inicia solo)
boys are dying on the streets
(d4/9

a9

a9

e

e) (solo)

1:58
(2:03riff1)
d4/9
a9
e
d4/9
i know the medical world could knock you out
a9
e
d4/9
sell the coins that you jayed last thursday...hey
a9
e
dine by candlelight and hold your savings tight
d4/9
a9
e
you'll never, you'll never know when the bridge falls apart
d4/9
a9
you spoke of latent causes, sterile gauze's and
e
d4/9
a9
e
the bedside morale
d4/9
a9
e
d4/9
a9
trapeze around the table talking sentences so incomplete
"play ...plete"
e
d4/9 (solo) a9 e
boys are dying on the streets
(d4/9
a9
e) (solo)
(introdu��o) (d4/9
a9
acordes:** - eadgbe
||
||||||
e - 022100
d4/9- xx0220
a9 - x02200

hady lane

e) d4/9

g
em
b
c
g----------------------------------------------------------------d--------------------------------------4---4----------5---5---5--5
a-----5---5---5--------2--2---2----2-2---2---2---3-3---3---3---3-e-3-3---3---3---3--0-0---0--0---0--------------------------------g
em
b
blind date with a chancer we had oysters and dry lancers and the check
c
when it arrived we went dutch dutch dutch dutch
g
em
a redder shade of neck on a whiter shade of trash and this
b
c
emory board is giving me a rash
g
em
b
c
i am flat out your're so beautiful to look at when you cry
g
em
b
c
freeze don't move you've chosen as an extra in the movie adaptation of the
a
sequel to your life
g
em
b
c
a shady lane everybody needs one
g
em
b
c
a shady lane everybody wants one
c
am
g
d
oh my god, oh my god, oh my god, oh my
c
am
g
d
oh my god, oh your god, oh his god, oh
c
am
it's everybody's god, it's everybody's
god
c
am
the worlds collide and all that i want
c
(b a g) fill#1
a shady lane

god
her god
g
d
god, it's everybody's god, it's everybody's
d
is

fill#1
d-----------|
a--3-2-0----|
e--------3--|
pausa
g
e
b
c
glance don't stare soon you're bring told to recognize you heirs
g
e
b
c
no not me i'm an island of such great complexity
g
e
b
c
distress surrounds the muddy peaceful center of this town
g
e
b
c
tell me off in the hotel lobby right in front of all the bellboys and the
a
g
over friendly concierges

g
em
b
c
a shady lane everybody needs one
g
em
b
c
a shady lane everybody wants one
c
am
g
d
oh my god, oh my god, oh my god, oh my
c
am
g
d
oh my god, oh your god, oh his god, oh
c
am
it's everybody's god, it's everybody's
god
c
am
the worlds collide and all that i want
c
(b a g) fill#1
a shady lane

god
her god
g
d
god, it's everybody's god, it's everybody's
d
is

spit on a stranger
introdu��o: contrabaixo
g------------------------------|----------------------------|
d------------------------------|----------------------------|
a--5--5\12--12--9--9--7--9--5--|--5--5\12--12--9\14--12--5--|
e------------------------------|----------------------------|
00:27
g-----------------------------|-----------------------|-------|
d-----------------------------|-----------------------|-------|
a--5\12--12--10--10--9--7--5--|--7--3-----5--2--2--0--|-0-0-0-|
e-----------------------------|-----------------------|-------|
introdu��o: guitarra1 (2x cada parte)
riff1
e-------------------------------------------------------------|
b--------3--------------3--------------3--------------3-------|
g-----2-----2--------2-----2--------2-----2--------2-----2----|
d--0----------------------------------------------------------|
a-----------------4-----------------------------0-------------|
e--------------------------------2-----------3----------------|
riff2
no final da
introd. 00:27
e--------------------------------------------------------------|----------|

b--------3--------------3--------------3--------------3-----3--|----------|
g-----2-----2--------2-----2--------2-----2--------2-----2-----|-2--2--2--|
d--0-----------------------------------------------------------|-2--2--2--|
a-----------------3-----------------------------0--------------|----------|
e--------------------------------3-----------------------------|----------|

primeira parte: 00:33
nessa parte a guitarra � como na introdu��o.
baixo
g------------------------------|----------------------------|
d------------------------------|----------------------------|
a--5--5\12--12--9--9--7--9--5--|--5--5\12--12--9\14--12--5--|
e------------------------------|----------------------------|
g-----------------------------|-----------------------------|
d-----------------------------|-----------------------------|
a--5\12--12--10--10--9--7--5--|--5\12--12--10--10--9--7--5--|
e-----------------------------|-----------------------------|
refr�o 00:56
baixo 2x
g------------------------------------------------------------------------|
d------------------------------------------------------------------------|
a------------------------------------------------------------------------|
e---7--7--7-----7--5--5--5-----5--4--4--4--4--4-----0-----3-----3--3--3--|
1:16
g---------------------------------------|
d---------------------------------------|
a------------------5-----5--------------|
e------3-----3--3-----------0-----0--3--|

parte 1 ( como na introdu��o - riff1 2x e riff2 2x)
(riff1 2x e riff2 2x)
however you feel,
whatever it takes,
whenever it's real,
whatever awaits,
whatever you need,
however so slight,
whenever it's real,
whenever it's right.
bm
bm/a
e
i've been thinking long and hard about the things you said to me,
g
d
like a bitter stranger,
bm
bm/a
e
and now i see the long, the short, the middle and what's in between,
g
d
i could spit on a stranger,

e
g
(pour/pull me out)
g
d
you're a bitter stranger.
e
g
(pour me out)

(riff1 2x & riff2 2x)
whatever you feel,
whatever it takes,
whenever it's real,
whatever awaits me,
whatever you need,
however so slight,
whenever it leads,
whenever it's right.

g

g

g

g

g

g
g

bm
bm/a
honey i'm a prize and you're a catch
e
and we're a perfect match,
d
like two bitter strangers,
bm
and now i see the long,
bm/a
e
the short of it and i can make it last,
d
i could spit on a stranger,
e
g
(pour me out)
d
you're a bitter stranger,
e
g
(pour me out)
d
i could spit on a stranger,
e
g
(pour me out)
d
you're a bitter stranger.
e
g
(pour me out)
d (riff3)
i see the sunshine in your eyes,
d (riff3)
i'll try the things you'll never try,
i'll be the one that leaves
d
e2
g2
(slide d)
you high...high...high
(riff3 2x)

riff3

e---2--2--0--2--0--2--3-|
b---3--3--3--3--3--3--3-|
g---2--2--0--2--0--2--0-|
d---0--0-----0-----0--0-|
a---------------------2-|
e---------------------3-|
final:
e--------------------------|
b--------------------------|
g------------2-------------|
d---0--2--4-----4--2\4--4--|
a--------------------------|
e--------------------------|
acordes:
eadgbe
d - 000232
e - 022100
e2- xxx454
g - 320033
g2- xxx787
bm- 224432
bm/a- 004432

we dance
intro: em7
a
g
there is no
d
castration fear.
d7+
in a chair,
d6
you will be,
a7/4
a7
with me.
g

we'll dance,
d4/f#
we'll dance,
em7
we'll dance,
d
we'll dance.
em7
a
but no one will dance
g
with us
d
in this zany town.
em7
a
chim-chim-chim sings some praise
g
for your elders
d
they're in the bag.
g
pick out some brazilian nucannoball
intro:
-----------------------------------------------------------------------------------------------------------------------------------------------------------------------------------------------------------------------------------------------------------1/6-6-6-6---1/6-6-6-6---1/7-7-7-7---0-0-0-0------verso:
--7-7-7-7---------------7-7-7-7--9-9-9-9------8-8-8-8--9-9-9-9------9-9-9-9--9-9-9-9------9-9-9-9--7-7-7-7------7-7-7-7--------------

esse riff � tocado durante a m�sicas as vezes:
-------------------------------------------------------------------7/9/7-7/9/7----------------------------------7/9/7-7/9/7---------------------------------------------------------------------refr�o:
--7-7-7-7--------------------------x-x----7-7-7-7--8-8-8-8-----14-14-14----x-x---

--8-8-8-8--8-8-8-8-----14-14-14----x-x----9-9-9-9--8-8-8-8-----14-14-14----x-x----9-9-9-9--7-7-7-7-----12-12-12----x-x----7-7-7-7--------------------------x-x--at the end of the chorus riff you hit 10
muted strokes quickly.ts
d
for your engagement.
g
check that expiration date man,
d
it's later than you think.
a
you can't enjoy yourself, i can't enjoy myself.
g
you can't enjoy yourself, i can't enjoy myself.
move that swing,
d
and watch it break straight like an ox.
em7
a
but i won't be there
g
to live you,
d
ah ah ah.
em7
a
g
cause i don't have a clue,
d
anymore.
d
maybe we could dance,
d7+
maybe we could dance,
d6
maybe we could dance,
g
together,
d4/f#
together,
em7
together,
d
together.
d
first time we'll see,
d7+
and then we'll be,
d6
five times forever,
a7/4
a7
g d4/f# em7
and we'll never be lost.

d

gigantic
introdu�ao
riff para o baixo faz na guitarra sem dist. eh legal
a------5--7-7---2-2----3--5-5-----e--3---------------------------3--- 2x
riff para o baixo 6x
aah!!! aah!!! ahh!!! ahh!!! ahh!!!
and this i know
his teeth as white as snow
what a gas it was to see him
walk her every day
into a shady place
with her lips she said
she said
e--------------b--------------- 3x
g----------12~~hey paul, hey paul, hey paul, let's have a ball 3x
(refrao)
e----------------------------------------------b----------------------------------------------g-----------7-7--9-9------4-4-4-4---5-5--7-7---d-5-5-5-5---7-7--9-9------4-4-4-4---5-5--7-7---- 4x
a-5-5-5-5---5-5--7-7------2-2-2-2---3-3--5-5---e-3-3-3-3--------------------------------------gigantic,
a big big
gigantic,
a big big

gigantic, gigantic
love
gigantic, gigantic
love

riff para o baixo com o acompanhamento da bateria
a------5--7-7---2-2----3--5-5------e--3---------------------------3-3-lovely legs there are
what a big black mask
what a hunk of love
walk her every day into a shady place
he's like the dark, but i'd want him
e--------------b--------------- 3x
g----------12~~hey paul, hey paul, hey paul, let's have a ball 3x

(refrao)
e----------------------------------------------b----------------------------------------------g-----------7-7--9-9------4-4-4-4---5-5--7-7---d-5-5-5-5---7-7--9-9------4-4-4-4---5-5--7-7---- 4x
a-5-5-5-5---5-5--7-7------2-2-2-2---3-3--5-5---e-3-3-3-3--------------------------------------gigantic,
a big big
gigantic,
a big big

gigantic, gigantic
love
gigantic, gigantic
love

solo
e------------------------------------------b------------------------------------------g-----0--1---------------------------------d-5--0--2---1-(1)---3--4-5--5--------------a-5--------2-------4--5-----5--------------e-3-------------------------3--------------ponte p�s solo
g5 d5 e5 b5 c5 d5 4x
riff para o baixo:
gigantic, gigantic, gigantic
a big big love
refrao
gigantic, gigantic, gigantic
a big big love 7x uma par de vezes e com gritos de fundo
ponte
gigantic

gouge away
ab
b e
gouge away

ab
you can gouge away
e
stay all day

ab
b e ab
if you want to
(ab b e ab e ab)
missy aggravation
some sacred questions
you stroke my locks
some marijuana
if you got some
ab
b e
gouge away

ab
you can gouge away
e
stay all day
ab
b e ab
if you want to
(ab b e ab e ab)
sleeping on your belly
you break my arms
you spoon my eyes
been rubbing a bad charm
with holy fingers
ab
b e
gouge away
ab
you can gouge away
e
stay all day
ab
b e ab
if you want to
(ab b e ab e ab)
chained to the pillars
a 3-day party
i break the walls
and kill us all
with holy fingers
ab
b e
gouge away

ab
you can gouge away
e
stay all day
ab
b e ab
if you want to

where is my mind
introdu��o:
guitarra 1:
e c#m abm a (x2 sozinho; x2 com guitarra 2)
guitarra 2: (toca durante a m�sica)
e|---4---4---4---4---4---4-----------------|
b|-5---5---5---5---4---4---5-4-5-4-5-4-5-4-|
e
c#m
with your feet in the air and your head on the ground
e
c#m
g#m
a
try this trick and spin it
yeah,
e
c#m
g#m
your head will collapse but there's nothing in it
a
and you'll ask yourself
refr�o:
e
c#m
where is my mind?
g#m
a
where is my mind?
e
c#m
g#m a
e c#m g#m a
where is my mind?
e
g#m
a
am
c#
way out in the water see it swimmin'

g#m

a

b

e|---4---4---4---4---4---4-----------------|
b|-5---5---5---5---4---4---5-4-5-4-5-4-5-4-|
e
c#m
g#m
a
i was swimmin' in the carribean
e
c#m
g#m
a
animals were hiding behind the rock
e
c#m
g#m
a
except the little fish but they told me, he swears tryin' to talk to me to me to
me
refr�o
solo:
guitarra 1:
e||--------------------------------------------|
b||--9b--r-9b--r-------------------------810---|
g||--9b--r-9b--r--9b--9r-9-9-7----7---9--------|
d||----------------------------9---------------|
a||--------------------------------------------|
e||--------------------------------------------|
|| guitarra 2:
|

e||--------------------------------------------|
b||--7-----7-----------------------------------|
g||--9b--r-9b--r--9b--9r-9-9-7-7----7--9--7----|
d||------------------------------9-----------9-|
a||--------------------------------------------|
e||--------------------------------------------|
guitarra 1:
e||--------10-12-12-12b-r-13b--r-13b--r-13b--r-----|
b||-10-12------------------------------------------|
g||------------------------------------------------|
d||------------------------------------------------|
a||------------------------------------------------|
e||------------------------------------------------|
|| guitarra 2:
|
e||-------------10---12b--r-12b--r-12b--r-12b--r---|
b||-----7-10-12------------------------------------|
g||-7-9--------------------------------------------|
d||------------------------------------------------|
a||------------------------------------------------|
e||------------------------------------------------|
repete: 1� estrofe
refr�o
guitarra 1: e c#m g#m a
guitarra 2:
e|---4---4---4---4---4---4-----------------|
b|-5---5---5---5---4---4---5-4-5-4-5-4-5-4-|
e
c#m
with your feet in the air and your head on the ground
e
c#m
g#m
a
try this trick and spin it
yeah
guitarra 1: e c#m g#m a (x4)
guitarra 2:
e|---4---4---4---4---4---4-----------------|
b|-5---5---5---5---4---4---5-4-5-4-5-4-5-4-|
baixo
riff principal
g|---------------------------------|
d|---------------------------------|
a|---------4-4-4-4---------0-0-0-0-|
e|-0-0-0-0---------4-4-4-4---------|
introdu��o: 2x; entra com a guitarra 2
versos: 1 vez a cada repeti��o dos riffs
refr�o 1: 3x; na repeti��o dos riffs
outras partes: sempre acompanha � e c#m abm a �
riff 1
g|-------------------------------------|
d|-------------------------------------|

g#m

a

a|-------------------------------------|
e|-0-0-0-0-0-4-4-4-4-4-5-5-5-5-5-5-5-5-|
toca na �ltima frase do refr�o (�way out in...�), acompanhando os acordes das
guitarras.
interl�dio / solo
g|---------------------------------|
d|---------------------------------|
a|---------------------------------|
e|-4-----2-2-2-2-2-2-2-2-2-2-2-2-2-|
interl�dio: acompanha as guitarras quando o refr�o acaba.
solo: 3x

hey
[apenas baixo]
|---------------------------------------------------------------|
|---------------------------------------------------------------|
|-------------------0----1---2-----2--2-3-4-5---5--5------------|
|-------2-------------------------------------------------------|
hey
been trying to meet you
[come�a a guitarra]
|-----2----x--x------------2---------------------|
|-----3----x--x---3--3-------3-------------------|
|-----2h4--x--x---2--2h4-------4-----------------|
|------------------------------------------------|
|------------------------------------------------|
|------------------------------------------------|
|
| (repete)
|
|
|[baixo]
|
|------------------------------------------------|
|------------------------------------------------|
|------------------------------------------------|
|--0--2--3---------3---3---------0--1--2--2--2---|
hey
must be a
or whores
whores at
whores in
but hey
where
have you
been
if you go

devil between us
in my head
my door
my bed

i will surely die

g
em
we're chained
solo:

bm

g

em

bm ...

|-------------------------------------------------------------|-------------------------------------------------------------|--7-------------6--------------------------------------------|----9-7-----------7------------------------------------------|--------9-7h8h9-----9--7-7h8h9--7-5-----------7-5------------|------------------------------------7-5-5h6h7-----7-5-5h6h7--[repete]
verso 2:
uh, said the man to the lady
uh, said the lady to the man she adored
and the whores like a choir
go uh all night
and mary ain't you tired of this
uh is the sound
that the mother makes when the baby breaks
we're chained
nota��o:
h=hammer-on
x=corda abafada
can��o simples, mas vale a pena tocar...
faz muito tempo que eu n�o ou�o essa m�sica, ent�o qualquer erro,
reclama��o, corre��o, coment�rio s�o bem-vindos...
ou�am esse disco inteiro, � um cl�ssico do pop alternativo...
"pixies � o pop perfeito" - kurt cobain

about a girl
composi��o: kurt cobain
tom: e
verso

e
g
e
g
e|--000--333--000--333-b|--000--333--000--333-g|--111--000--111--000-d|--222--000--222--000-a|--222--222--222--222-e|--000--333--000--333-refr�o
c# g# f# c# g# f#
e
a
c
e|---------------------------000-000-000-b|---------------------------000-222-111--

g|--666---------666----------111-222-000-d|--666-666-444-666-666-444--222-222-222-a|--444-666-444-444-666-444--222-000-333-e|------444-222-----444-222--000-----000-solo
e|---------------------------------b|---------------------------------g|---------------------------------d|---------------------------------a|----0/3/5-5-5-5-5/9-9-9-9/12-12-12
e|--3------------------------------i
i
i
i

need an easy friend
do... with an ear to lend
do... think you fit this shoe
do... but you have a clue.

i'll take advantage while
you hang me out to dry
but i can't see you every night
free.
i do...
i'm standing
i do... hope
i do... pick
i do... keep

in your line
you have the time
a number two
a date with you.

i'll take advantage while
you hang me out to dry
but i can't see you every night
free.
i do...
i
i
i
i

need an easy friend
do... with an ear to lend
do... think you fit this shoe
do... but you have a clue.

i'll take advantage while
you hang me out to dry
but i can't see you every night
i can see you every night
....free.
i do, i do, i do, i do. . ..

all apologies
intro:
c g em dm am
c
g
em
what else should i be
dm
am
all apologies
c
g
em
wath else should i say
dm
am
everyone is gay
c
g
em
what else should a write
dm
am
i don't have this right
c
g
em
what else should i be
dm
am
g
all apologies
f
in the sun,in the sun i feel as one
in the sun,in the sun....
g
i'm married
burried
c
g
em
i wish i was like you
dm
am
easily amused
c
g
em
find my nest of salt
dm
am
everything is my fault
c
g
em
i will take all the blame
dm
am
aqua seafoam shame
c
g
em
sunburn with freezeburn
dm
am
g
chocking on the ashes of her enemy
f
in the sun,in the sun i feel as one
in the sun,in the sun....
g
i'm married
burried

(x4)

yeah ,yeah, yeah, yeah, yeah....
c
g em dm am
all in all is all we are (x12)

aneurysm
tom: e
intro
f#5,c5,b5,a5 (2x)
e|-------------------------------------------------|
b|-------------------------------------------------|
g| ---2222222...3...4...5...6...7...8...99999999---|
d|-------------------------------------------------|
a|-------------------------------------------------|
e|-------------------------------------------------|
agora com distor�ao: f#5,c5,b5,a5

(8x)

e|-------------------------------------------------|
b|-------------------------------------------------|
g| ---2222222...3...4...5...6...7...8...99999999---|
d|-------------------------------------------------|
a|-------------------------------------------------|
e|-------------------------------------------------|
verso
b5 (limpo),d5 (com distorcao) (2x)
kurt cobain come�a a cantar:
b5 (limpo)
d5
come on over, do the twist
b5 (limpo)
d5
overdo it, have a fit
b5 (limpo)
d5
come on over, shoot the shit
b5 (limpo)
d5
come on over, do the twist

(distor��o)
(distor��o)
(distor��o)
(distor��o)

refr�o:
f#5 g#5 a5 a#5
b5
a# a5
beat me outta of me (beat it, beat it)
e|-------------------------------------------------|
b|-------------------------------------------------|
g| ---2222222...3...4...5...6...7...8...99999999---|
d|-------------------------------------------------|
a|-------------------------------------------------|

e|-------------------------------------------------|
final
(f#5,c5,b5,a5)
she keeps it pumpin' straight to my heart

on a plain
d

g
f
i'll start this off
em
d
without any words
g
f
i got so high that
em
d
i scratched 'til i bled
c
bm
love myself
a
d
better than you
g
f
i know it's wrong
em
d
so what should i do?
g
f
the finest day
em
d
that i ever had
g
f
was when i learned
em
d
to cry on command
c
bm
love myself
a
d
better than you
g
f
i know it's wrong
em
d
e (7�casa)
so what should i do?
d
e (7�casa)
i'm on a plain
d
e (7�casa)
i can't complain

d
e (7�casa)
i'm on a plain
d g
f
my mother died
em
d
every night
g
f
it's safe to say
em
d
don't quote me on that
c
bm
love myself
a
d
better than you
g
f
i know it's wrong
em
d
so what should i do?
g
f
the black sheep got
em
d
blackmailed again
g
f
forgot to put
em
d
on the zip code
c
bm
love myself
a
d
better than you
g
f
i know it's wrong
em
d
so what should i do?
d
i'm on a plain
d
i can't complain
d
i'm on a plain
f
e
somewhere

e (7�casa)

e (7�casa)
e (7�casa)
e (7�casa)

a g
i have heard this before
f
e
in a dream
a
g
my memory has stored
f
e
as defense
a g
i'm neutered and spayed
f
e
what the hell
a g
am i trying to say?

d

g
f
it is that time
em
d
to make it unclear
g
f
to write off lines
em
d
that don't make a sense
c
bm
love myself
a
d
better than you
g
f
i know it's wrong
em
d
so what should i do?
g
f
one more special
em
d
message to go
g
f
and then i'm done
em
d
and i can go home
c
bm
love myself
a
d
better than you
g
f
i know it's wrong
em
d
e (7�casa)
so what should i do?
d
e (7�casa)
i'm on a plain
d
e (7�casa)
i can't complain
d
e (7�casa)
i'm on a plain

school
vers�o 1
-======tuning:standard
first tap the back of the neck of the guitar with distortion for about 8 seconds,
then:
intro/verses
-----------------------------------|

-----------------------------------|
-----------------------------------|
-----------------------------------|
-----------------------------------|
0--0-0-5/6-0-0-5/6----0-0-0-0-0-5/6|
chorus
c5
a5
e5
d5
-------------------------------|------0-0--0-0-----------------|
-------------------------------|------0-0--0-0-----------------|
-5---5-5--5-5---5-2-2-2-2-2-2-2|----------------0-7-7-7-7-7-7-7|
-5---5-5--5-5---5-2-2-2-2-2-2-2|-2--2-2-2--2-2--0-7-7-7-7-7-7-7|
-3---3-3--3-3---3-0-0-0-0-0-0-0|-2--2-2-2--2-2--0-5-5-5-5-5-5-5|
-------------------------------|-0--0-0-0--0-0-----------------|
pm_____________
c5
a5
-------------------------------|
-------------------------------|
-5---5-5--5-5---5-2-2-2-2-2-2-2|
-5---5-5--5-5---5-2-2-2-2-2-2-2|
-3---3-3--3-3---3-0-0-0-0-0-0-0|
-------------------------------|
pm_____________

bridge
----------------------12-12-12|----------------------14-14-14|
----------------------12-12-12|----------------------14-14-14|
----11-11--12-12-12---12-12-12|----11-11--12-12-12---14-14-14|
----10-10--11-11-11-----------|----10-10--11-11-11-----------|
----9--9---10-10-10-----------|----9--9---10-10-10-----------|
-0----------------------------|-0----------------------------|
-------------------------14-14|------------------------------|
----------------------14-14-14|------------------------------|
----11-11--12-12-12---14-14-14|----11-11--12-12-12-----------|
----10-10--11-11-11-----------|----10-10--11-11-11-----------|
----9--9---10-10-10-----------|----9--9---10-10-10---14\-----|
-0----------------------------|-0----------------------------|
solo
------------------------------------|-----------------------------------|
-3--------3-------3-----------------|--3-------3-------3---3-3-3-3-5-5p0|
-2b4---r2-b4-r2p0-2pb4r2p0----------|--2pb4-r2-b4-r2p0-2b4--------------|
--------------------------2p0-------|-----------------------------------|
------------------------------2p0---|-----------------------------------|
----------------------------------3-|-----------------------------------|
------------------------------------|-----------------------------------|
-5p3p0-5p3p0------------------------|-----------------------------------|
------------4p0-2-2-2gb4------------|-0-2-0-0-2b4r2p0--------2-0-2-/----|
--------------------------------2-2-|-----pm=---------2-0-0-2-----------|

------------------------------------|-----------------------------------|
------------------------------------|-----------------------------------|
------------------------------------|
--------------8---8--10b-10b--------|
-7--7-7-9-7-9---9-------------------|
------------------------------------|
------------------------------------|
------------------------------------|
-----------------------------------------------------------|
15b17-15-15b17r15p12---------------------------------------|
---------------------12-14-14b16-14-14-12------------------|
------------------------------------------14-12-12-14-14-12|
-----------------------------------------------------------|
-----------------------------------------------------------|
---------------------------------------|------------------------|
---------------------------------------|------------------------|
---------------------------------------|------------------------|
-14---14-12-12-12-11-11-11-9-9-9-7-7-5-|-7b9--gr----------------|
---------------------------------------|------------------------|
---------------------------------------|-----------------12\----|
final chorus
c5
a5
e5
d5
-------------------------------|------0-0--0-0-----------------|
-------------------------------|------0-0--0-0-----------------|
-5---5-5--5-5---5-2-2-2-2-2-2-2|----------------0-7-7-7-7-7-7-7|
-5---5-5--5-5---5-2-2-2-2-2-2-2|-2--2-2-2--2-2--0-7-7-7-7-7-7-7|
-3---3-3--3-3---3-0-0-0-0-0-0-0|-2--2-2-2--2-2--0-5-5-5-5-5-5-5|
-------------------------------|-0--0-0-0--0-0-----------------|
pm_____________

ending
c5
a5
-------------------------------|
-------------------------------|
-5---5-5--5-5---5-2-2-2-2-2-2-2|
-5---5-5--5-5---5-2-2-2-2-2-2-2|
-3---3-3--3-3---3-0-0-0-0-0-0-0|
-------------------------------|
pm_____________

_______________________________________________________

vers�o 2
-======-

->n0 come�o fa�a isso e deixe a microfonia.
a|-0------------------------------------e|-0------------------------------------->depois e so ficar nisso ate o refrao...
e|-------------------------------------b|-------------------------------------d|-------------------------------------g|-------------------------------------a|-------------------------------------e|---0--0-0-5/6-0-5/6-0-0-0-0-0-5/7-0refr�o:
c5 (x355xx)
a5 (577xxx)
e5 (022xxx)
d5
e|--------------0--------------------------b|----------------0------------------------d|-5----------------0--7-------------------g|-5---7----2----------7-------------------a|-3---7----2----------5-------------------e|-----5----0-------------------------------

(x577xx)

tem o solo,so q nao tenho a menor ideia,quem souber me mande um e-mail
---------------------------------------essa musica eh de fuder e facil,quem tiver aprendendo e pega as tabs de nirvana
erradas � muito ruim,
por isso todo mundo q curte rock concertem as tabs de nirvana
que t�o quase todas erradas...
a letra:
won't you believe it, it�s just my luck
no recess
you're in high school again

smells like teen spirit
guitarra

introdu��o:
f5
bb5
g#5
c#5
g|------------------3-3-3--------------------6-6-6-| (x6)
d|-3-3-3--x-x-x-x---3-3-3---6-6-6--x-x-x-x---6-6-6-|
a|-3-3-3--x-x-x-x---1-1-1---6-6-6--x-x-x-x---4-4-4-|
e|-1-1-1--x-x-x-x-----------4-4-4--x-x-x-x---------|
b|--6-| (x2)
g|-5--|
b|--6-| (x4)
g|-5--|
load up on guns and bring your friends
it's fun to lose and to pretend
she's over-bored and self assured
oh no, i know a dirty word
refr�o:
b|---6--6--6--6---|
g|-5--5--5--5--5--|
hello, hello, hello, how low
b|-6--6--6--6---| (x2)
g|--5--5--5--5--|
hello, hello, hello, how low
hello, hello, hello, how low
b|-6--6--6---|
g|--5--5--5--|
hello, hello, hello�
f5
bb5
g#5
c#5
g|------------------3-3-3--------------------6-6-6-| (x6)
d|-3-3-3--x-x-x-x---3-3-3---6-6-6--x-x-x-x---6-6-6-|
a|-3-3-3--x-x-x-x---1-1-1---6-6-6--x-x-x-x---4-4-4-|
e|-1-1-1--x-x-x-x-----------4-4-4--x-x-x-x---------|
with the lights out, it's less dangerous
here we are now, entertain us
i fell stupid, and contagious
here we are now, entertain us
a mulatto, an albino
a mosquito, my libido, yeah
f5 e5 f5 f#5
f5 e5 f5 a#5 g#5 f5 e5 f5 f#5
f5 e5 f5 a#5 g#5
g|---------------4b-------------------|---------------4b-------------------|
d|-3-3--2-3--4-4-----3-3--2-3--8-8--6-|-3-3--2-3--4-4-----3-3--2-3--8-8--6-|
a|-3-3--2-3--4-4-----3-3--2-3--8-8--6-|-3-3--2-3--4-4-----3-3--2-3--8-8--6-|
e|-1-1--0-1--2-2-----1-1--0-1--6-6--4-|-1-1--0-1--2-2-----1-1--0-1--6-6--4-|
yay!
yay!
b|--6-| (x2)
g|-5--|
b|--6-| (x4)
g|-5--|
i'm worse at what i do best
and for this gift i feel blessed
our little group has always been
and always will until the end

refr�o
f5 e5 f5 f#5
f5 e5 f5 a#5 g#5 f5 e5 f5 f#5
f5 e5 f5 a#5 g#5
g|---------------4b-------------------|---------------4b-------------------|
d|-3--2-2-3--4-4-----3--2-2-3--8-8--6-|-3--2-2-3--4-4-----3--2-2-3--8-8--6-|
a|-3--2-2-3--4-4-----3--2-2-3--8-8--6-|-3--2-2-3--4-4-----3--2-2-3--8-8--6-|
e|-1--0-0-1--2-2-----1--0-0-1--6-6--4-|-1--0-0-1--2-2-----1--0-0-1--6-6--4-|
yay!
yay!
solo
e|--------------------------------------------------|
e|--------------------|
b|------------6----6---4----------------------------|
b|--------------------|
g|---5-----8--------------6-5-6-5--------5----------| 2x g|--------------------|3x
d|--------------6------------------8-6-8----8-6-5---|
a|--------------------------------------------------|
e|--------------------------------------------------|

d|---6-5-6-5-6-5---3~-|
a|--------------------|
e|--------------------|

solo(2� versao):
e|------5---7-------6h8---3-2-3---------------------|
e|--------------------|
b|--7----------3-----------------6--4--6h8--4--3----|
b|4-3-4-3-4-3-4-3h1---|
g|--------------------------------------------------| 2x g|--------------------|3x
d|--------------------------------------------------|
a|--------------------------------------------------|
e|--------------------------------------------------|
(ouca a musica para saber o tempo do solo)
and i forget just what i taste
oh yeah, i guess it makes me smile
i found it hard, it's hard to find
oh well, whatever, never mind
refr�o
f5
bb5
g#5
c#5
g|------------------3-3-3--------------------6-6-6-| (x4)
d|-3-3-3--x-x-x-x---3-3-3---6-6-6--x-x-x-x---6-6-6-|
a|-3-3-3--x-x-x-x---1-1-1---6-6-6--x-x-x-x---4-4-4-|
e|-1-1-1--x-x-x-x-----------4-4-4--x-x-x-x---------|
a denial, a denial
a denial, a denial
a denial, a denial
a denial, a denial
f5
d|-3-|
a|-3-|
e|-1-|
a denial
baixo
introdu��o / refr�o / solo / finaliza��o

d|--------------------|
a|--------------------|
e|--------------------|

a|----------1-1-1----------4-4-4-|
e|-1--1-1---------4--4-4---------|
introdu��o: 4x
refr�o: 6x
solo: 8x
finaliza��o: 4x
versos
a|---------1-1-1-1/3---------4-4-4-3\-|
e|-1-1-1-1-----------4-4-4-4----------|
a cada estrofe: 10x (at� "hello, hello, hello...")
ap�s o solo: 2x
ap�s o refr�o
g|-------------------------------|
d|------------------------------o|
a|-------------3----------1-1---o|
e|-1-1-0-1-2-2----1-1-0-1-----4--|

sliver
guitarra
mom and dad went to a show
they dropped me off at grandpa joe's
i kicked and screamed, said please don't go
refr�o:
c5
a5
grandma take me home

: x
: 8

(c5 f5 c5 a5)
had to eat my dinner there
mashed potatoes and stuff like that
i couldn't chew my meat's too good
refr�o
(c5 f5 c5 a5)
she said, well, don't you start your crying
go outside and ride your bike
that's what i did, i killed my toe
refr�o
(c5 f5 c5 a5)
after dinner, i had ice cream
i fall asleep and watched tv
i woke up in my mother's arms
c5
a5
grandma take me home
c5

a5

: x20
:

i feel alone
baixo
g|----------------------------------|
d|----------------------------------|
a|--3--3-3---------1-1--------1-----|
e|---------1--1-1-------3-3--1------|
toca na introdu��o (uma vez) e se repete durante a m�sica inteira, com
1 riff por
verso nas estrofes e 1 riff a cada 2 versos no refr�o.

territorial pissings
intro:(a f d)2x
(a f d)
when i was an alien
cultures wen't opinions...
(a f d)
gotta find away, find away, what i'm here
gotta find away, find away, find away...
(a f d)
never met a wise man
it's for so a woman..
(a f d)
gotta find away, find away, what i'm here
gotta find away, find away, find away...
o baixo faz (a f d) e a guitarra segura em (a)

(a f d)
just because your paranoid
don't mean cause after you...
(a f d)
gotta find away, find away, what i'm here
gotta find away, find away, find away...

verse chorus verse
obs.: essa m�sica � de um dos b-side's do nirvana
a afina��o �: eb ab db gb bb eb
verso: (fig.1)
d
and
if
you

bb
save

g
yourself

a

you

will

bb
c
make him happy

|--------2-----2--------------3--3--3-----0--0--0--0--0--------------------------|
|--3--3--3--3--3-----3--3-----3--3--3-----2--2--2--2--2-----3--3--3--5--5--5--5--|
|--2--2--2--2--2--0--3--3-----0--0--0--0--2--2--2--2--2--0--3--3--3--5--5--5--5--|
|--0--0--0--0--0--0--3--3--0--0--0--0--0--2--2--2--2--2--0--3--3--3--5--5--5--5--|
|--------------------1--1--0--x--x--x--0--0--0--0--0--0-----1--1--1--3--3--3--3--|
|-----------------------------3--3--3--------------------------------------------|
(fig.1)
d
bb
g a
bb
c
he'll keep you in a jar, and you'll think you're happy
d
bb
g
a
bb
c
he'll give you breathing holes, then you'll make him happy
d
bb
g
a
bb
c
he'll cover you with grass, then you'll make him happy
(fig.2)
d
now
|------------------|
|-7--7--7--7--7--7-|
|-7--7--7--7--7--7-|
|-7--7--7--7--7--7-|
|-5--5--5--5--5--5-|
|------------------|

(fig.3)
bb
g
your
in
a
laundry room
|------------------------------------|
|-3--3--3--3--3-----3--3--3--3--3----|
|-3--3--3--3--3-----0--0--0--0--0----|
|-3--3--3--3--3--0--0--0--0--0--0--0-|
|-1--1--1--1--1--0--x--x--x--x--x--0-|
|-------------------3--3--3--3--3----|

refr�o: (fig.3)
bb
g
your in a laundry room
bb
g
the clues that came to you
(fig.4)
uuuuhhhhhhh
bb
a
|-------------------------------|
|-3--3--3--3--3-----------------|
|-3--3--3--3--3-----2-----------|
|-3--3--3--3--3--0--2-----------|
|-1--1--1--1--1--0--0-----------|
|-------------------------------|

(solo)
|------------------------------------------------------------|
|------------------------------------------------------------|
|---------------------------------------------------b--------|
|------3--5/7--7/10--10/12--12--12/14--14--14--14--14-14--14-|
|-3h5--------------------------------------------------------|
|------------------------------------------------------------|
|---------------------------------------------------------------|
|---------------------------------------------------------------|
|----------b--p--p--pr------------------------------------------|
|-12--14--14-14-14-14--12---------------------------------------|
|--------------------------b--p--pr-----------------------------|
|--------------------------------------------------------------|
|------------------------------------b-----------------------b-|
|-------------------15--17--17--15--17--17--15--12--12--14--14-|
|-14/15--14/17--17---------------------------------------------|
|--------------------------------------------------------------|
|-----------------------------------------------------------|
|-----------------------------------------------------------|
|--b--------------------------------------------------------|
|-14--14--12--12--10--12--12--12--12--12--14--14/15--15--14-|
|-----------------------------------------------------------|
|-----------------------------------------------------------|
|-----------------------------------------------------------|
|-----------------------------------------------------------|
|-----------------------------------------------------------|
|-14h15p15--12--12h14--14--14p12--12--12\10--10\9--9\7--7\5-|
|-----------------------------------------------------------|
|-----------------------------------------------------------|
|-----------------------------------------------------------|
|------3--3--3--3--3-----3--3--3--3--3-----3--3--3--3--3----|
|------2--2--2--2--2--0--3--3--3--3--3-----0--0--0--0--0----|
|-5\3--0--0--0--0--0--0--3--3--3--3--3--0--0--0--0--0--0--0-|
|------------------------1--1--1--1--1--0--x--x--x--x--x--0-|
|------------------------------------------3--3--3--3--3----|

o resto da letra � mais ou menos assim:
and if you cut yourself, you will think you're happy
he'll keep you in a jar, then you'll make him happy
he'll give you breathing holes, then you'll think you're happy
he'll cover you with grass, then you'll think you're happy now
and if you fool yourself, you will make him happy

he'll keep you in a jar, then you'll think you're happy
he'll give you breathing holes, then you will seem happy
you'll wallow in your shit, then you'll think you're happy now

coffee and tv
e
b
g
d
a
e

------------------------------------------------------------------------------------------------7--7-7-5---5-5--8-8--8-9-8--8-9-8--8-9-8-8--5-5--5-5-5-----------------9-9--9-9-9--9-9-9--9-9-9-9--7-7--7-7-7------------------------------------------------------------------------------------------------------------------------------

e
b
g
d
a
e

----------------------------------------------------------------------------------------------------------------------------4-4--4-4-4-4-2-2--2-2-2-2--7-7--7-7-7-7-10-10--10-10-10-10---5-5--5-5-5-5-3-3--3-3-3-3--8-8--8-8-8-8-11-11--11-11-11-11----------------------------------------------------------------------------------------------------------------------------

b
do you feel like a chain-store
am
e
practically floored
g/d
f
one of many zeros
bb
c#
kicked around bored
b
your ears are full but you're empty
am
e
holding out your heart
g/d
f
to people who never really
bb
a
care how you are

c#m
so give me coffee and tv
b
a
easily
c#m
e
i've seen so much, i'm going blind
a
b
and i'm braindead virtually
c#m
sociability
b
a
is hard enough for me
c#m
e
take me away from this big bad world
a
d
and agree to marry me
a
so we can start over again

b
do you go to the country
am
e
it isn't very far
g/d
f
there's people there who'll hurt you
bb
c#
because of who you are
b
your ears are full of their language
am
e
there's wisdom there you're sure
g/d
f
'til the words start slurring
bb
a
and you can't find the door
solo:
b
a e g
f
a#
c#
e ----------------------------------------------------------b ----------------------17~~-15~~----------------------------

g
d
a
e

-16~~-----------------------------------------------------------16h18-19--14~~-----------15b17--15-15^-----------------------------------------------------------------------------------------------------------------------------------

e
b
g
d
a
e

b
a
e
g
f
a#
a
----------------------------------------------------------------------------------------------------------17~~~-------9-11-11-9b11-11-9----------------------------------5b7---------------------9~~9~~-12~--14~~---12/14------------------------------------------------------------------------------------------------------------------------

final:
e
b
g
d
a
e

b
-----------------------------------------------------------------------------------------------------------------6-7-6-7-9-7-6--6-7-6-7-9-7------------------------------

d
a
aah, we can start over again
d
a
aah, we can start over again
d
a
aah, we can start over again
d
a
aah, we can start over again

beetlebum
intro:
e:----------------------------------------------------|
b:----------------------------------------------------|

g:----------------------------------------------------|
d:----------------------------------------------------|
a:-----------7---7---7-----------7---7---7--------|
e:---12----5---5---5----12----5---5---5--------|
(repeat x 5)
verse 1:
a
c
beetlebum, what you done?
f
g
she's a gun, now what you done?
bb
a
beetlebum
a
c
get nothing done, you beetlebum
f
g
just get numb, now what you done
bb
a
beetlebum
riff over verses:
a
e:--------------------------------------------------|
b:--------------------------------------------------|
g:--------------------------------------------------|
d:--------------------------------------------------|
a:----------7---7---7------------7---7---7-----|
e:--12----5---5---5-----12----5---5---5-----|
c
e:---------------------------------------------------|
b:---------------------------------------------------|
g:---------------------------------------------------|
d:---------------------------------------------------|
a:---------10--10--10-----------10-10--10---|
e:--15----8----8----8-----15----8---8---8----|
f
e:--------------------------------------------------|
b:--------------------------------------------------|
g:--------------------------------------------------|
d:--------------------------------------------------|
a:--------3---3---3-----------3---3---3--------|
e:--8----1---1---1-----8----1---1---1---------|
g
e:-------------------------------------------------|
b:-------------------------------------------------|
g:-------------------------------------------------|
d:-------------------------------------------------|
a:--------- 5---5---5-----------5---5---5-----|
e:--10----3---3---3----10----3---3---3-----|

chorus:
c
and when she lets me slip away
bm
am
f
she turns me on and all my violence gone
am
f
nothing is wrong, i just slip away
fm
c
and i am gone
bm
am
nothing is wrong
f
she turns me on
am
f
fm
c
i just slip away and i am gone
verse 2:
a
c
beetlebum, because your young
f
g
she's a gun, now what you done?
bb
a
beetlebum
a
c
she'll suck your thumb, she'll make you come
f
g
cause she's your gun, now what you done?
bb
a
beetlebum
chorus:
c
and when she lets me slip away
bm
am
f
she turns me on and all my violence gone
am
f
nothing is wrong, i just slip away
fm
c
and i am gone
bm
am
there's nothing wrong
f
she turns me on
am
f
fm
i just slip away and i am...
a
he's on, he's on, he's on it
c
he's on, he's on, he's on it
f
he's on, he's on, he's on it

g
bb
a
he's on, he's on, he's on it...
outro riff:
e: ------------------------------------------|
b: ---10------------------------------------|
g: --------9--/8/-9------------------------|
d: ----------------------10---9---7--------|
a:---------------------------------------5---|
e: -------------------------------------------|
(repeat riff till the end
over chords from the verses)

song 2
tom: abm
obs.: a m�sica � toda em powerchord (refr�o com distor��o e versos em som limpo.)
intro: fm eb ab bbm cm
fm
eb
i got my head checked

ab

bbm

fm
eb
by a jumbo jet

ab

bbm

cm

fm eb
it wasn't easy

ab

bbm

cm

fm
but nothing is, no

eb

ab

cm

bbm

refr�o (distor��o pesada)
fm
eb
yuhoo

ab
bbm
cm
when i feel heavy metal

fm
eb
ab
bbm cm
yuhoo and i'm pins and i'm needles

cm

fm
eb
yuhoo

ab
bbm cm
well i lie and i'm easy

fm
ab
db
all of the time and i'm never sure why i need you
pleased to meet ya
solo:
e|-----------------------------------b|-----------------------------------g|-----------------------------------d|-----------------------------------a|------------6666-------1----3333---e|-11----44----------44--------------fm
eb
i got my head done

ab

bbm

cm

fm
when i was young

ab

bbm

cm

eb

2x

fm
it's not my problem

eb

ab

bbm

cm

fm
it's not my problem

eb

ab

bbm

cm

fm

eb
yuhoo

fm
eb
yuhoo
fm
eb
yuhoo

ab
bbm
cm
when i feel heavy metal
ab
bbm cm
and i'm pins and i'm needles
ab
bbm cm
well i lie and i'm easy

fm
ab
db
all of the time and i'm never sure why i need you
pleased to meet ya
fm
eb
yeah, yeah
yeah, yeah
yeah, yeah
oh, yeah

ab

she's so high

bbm

cm

int: (d c)
c9 023030
d
c
see her face,

d
c
everyday,

d
c
see her face

a
c9
doesn't help me
d
c
d
c
she�s so high , she�s so high,

d
c
she�s so high

a
c9
i want to crawl all over her
d

c
i think of her

d
c
everyday

d
c
i think of her

a
c9
it doesn't help me
d
c
d
c
d
c
she�s so high , she�s so high, she�s so high
a
c9
i want to crawl all over her
(d c)
a
c9
she doesn�t help me
d
c
d
c
she�s so high , she�s so high,
a
c9
i want to crawl all over her

tender
introdu��o:

d
c
she�s so high
(d c)

e
b
g
d
a
e

--------------------0----------------h-p--------------------0-2-0-------0-2---1/2---------2-2-3-2---------3-1/2---2-------2-2-2-----------2---2-----------1---1-1-1-1/2-----------------------------2-------------2---------------------------------------------0-------------------------------------------------------------------0------------

e
b
g
d
a
e

----------------------0--------------h-p--------0---0-----------0-2-0---------0-2---1/2-------2-2-3-2---------0---0---2---2---2-----2---2-----------2-------------0-1-------------2-----------2-------------------2---------------2---------2-----------------0-----------------0----------------------------------------------------------------------------------------

e
b
g
d
a
e

---------------------------------------2-2-----2--------2-2-----2--2------2-2----2--2------2-----------------------------------------------------------------------------------------------

e
b
g
d
a
e

----------------------------0--------------------h-p------------0-2-0-------------0-1/2---1/2-----------2-2-2-3-2---------2-------2---------2-----------------------2---------0-1---------------2---------------------2-----------------------2---------------0-0-0-----------------0-0-0-0------------------------------------------------------------------------------

e
b
g
d
a
e

------------------------3-----3-1-2-------------1---1-1-2---------------2-2-----2-----------------------0-0-0------------------------

a
g
a
tender is the night lying by your side
a
g
a
tender is the touch of someone that you love too much
a
g
a
tender is the day the demons go away
a
g
a
lord i need to find someone who can heal my mind

a
come on, come on, come on,

d
c
get through it

a
come on, come on, come on,

c#m
d
love's the greatest thing

a
come on, come on, come on,

d
c
get through it

a
come on, come on, come on,

c#m
d
love's the greatest thing

c#m
d
that we have
c#m
d
i'm waiting for that feeling
c#m
d
waiting for that feeling
a
d
a
waiting for that feeling to come
a
e7
a
oh my baby, oh my baby, oh why, oh my
a
e7
a
oh my baby, oh my baby, oh why, oh my

a
g
a
tender is the ghost, the ghost i love the most
a
g
a
hiding from the sun, waiting for the night to come
a
g
a
tender is my heart for screwing up my life
a
g
a
lord i need to find someone who can heal my mind
solo:
e
b
g
d
a
e

----------------------------------------5-3-0-2-3-2-0-----------------5----------------------2--------------------------5^-5^-5^---5^-0------h-p----------2-----------------5^-0--------------------h--0-2-0--------------------------------------------------0-2-------2-0-0-----0--------------------------------------------------------------------------------

e
b
g
d
a
e

-------------------------------------------h-p-----------h--0-2-0---------0-2-------2-0-0--------------------

lint eastwood
h- hammer on
p- pull off
(x#)- amount of times played
standard tunings
clean
main riff 6-string
|---7-7---7--|
|---7-7---7---|
|---8-8---8--|
|---8-8---8---|
|---9-9---9--|
|---9-9---9---|
|---9-9---9--|
|---9-9---9---|
|---7-7---7--|
|---7-7---7---|
|-0-----7----|(x3) |-0-----8-----|(x1)
main riff 5-string bass
|------------|
|-------------|
|------------|
|-------------|
|---9-9---9--|
|---9-9---9---|
|-7----------|
|-7-----------|
|-------7----|(x3) |-------8-----|(x1)
riff i heard on the video. right before it shows who they are, (symbols) tsh! tsh!
tsh! then...
|-----------------|
|-----------------|
|---------------9-|
|-----9p7h9-------|
|---7-------7-----|
|-0-----------7---|

everlong
afina��o: ebgdad
riff 1
e|-------------------------------------------------|
b|-------------------------------------------------|
g|-------------------------------------------------|
d|---11-11-----11-11---11---11-11---11-11-11-------|
a|---9--9------9--9----9----9--9----9--9--9--------|
d|-0---------0-------0----0--------0---------------|
e|----------------------------------------------------------------|

b|----------------------------------------------------------------|
g|----------------------------------------------------------------|
d|-----11---11-11---11-----11---11---11-11-11-------7------7------|
a|-----9----9--9----9------9----9----9--9--9--0-----5------5------|
d|-9-9----9-------9----9-9----9----9----------0--5-5--5-5-5--5----|
riff 2
e||-----------------------------|---------|-----------------------------||
b||-----------------------------|---------|-----------------------------||
g||---9--9--9--9--9--9--9-11--9-|-7-7-7-7-|--9--9--9--9--9--9--9-11--9--||
d||--11-11-11-11-11-11-11-11-11-|-7-7-7-7-|-11-11-11-11-11-11-11-11-11--||
a||---9--9--9--9--9--9--9--9--9-|-5-5-5-5-|--9--9--9--9--9--9--9--9--9--||
d||-----------------------------|---------|-----------------------------||
(2x)
riff 3
e|------------------------------------------------------|
b|------------------------------------------------------|
g|-6-6-6-7-7-7-9-9-9-11-11-11-12-12-12------------------|
d|-x-x-x-x-x-x-x-x-x-x--x--x--x--x--x---7-7-7-7-7-------|
a|-4-4-4-5-5-5-7-7-7-9--9--9--10-10�10--7�7-7-7-7-------|
d|--------------------------------------7-7-7-7-7-------|
riff 4
e|------------------------------------------------------|
b|------------------------------------------------------|
g|-18-18-18-16-16-16-14-14-14-12-12-12-11-12-14---------| 2x
d|-x-x-x-x-x-x-x-x-x-x--x--x--x--x--x-------------------|
a|-16-16-16-14-14-14-12-12-12-10-10-10-9--10-12---------|
d|------------------------------------------------------|
refr�O

b5
g5
d5
e|---------------------------------------------------------------------------|
b|---------------------------------------------------------------------------|
g|-4--4-4-4-4-4-------------7-7-7--7-7-7--7-7-7-7-7-7-7----------------------|
d|-4--4-4-4-4-4-5-5-5-5-5-5-7-7-7--7-7-7--7-7-7-7-7-7-7----------------------| 2x
a|-2--2-2-2-2-2-5-5-5-5-5-5-5-5-5--5-5-5--5-5-5-5-5-5-5----------------------|
d|--------------5-5-5-5-5-5--------------------------------------------------|
b5
g5
d5
a5
g5
e|---------------------------------------------------------------------------|
b|---------------------------------------------------------------------------|
g|-4--4-4-4-4-4-------------7-7-7-7-7-7--------------------------------------|
d|-4--4-4-4-4-4-5-5-5-5-5-5-7-7-7-7-7-7--7-7-7-7-7-7--5-5-5-5-5-5-5-5-5-5-5-5|
a|-2--2-2-2-2-2-5-5-5-5-5-5-5-5-5-5-5-5--7-7-7-7-7-7--5-5-5-5-5-5-5-5-5-5-5-5|
d|--------------5-5-5-5-5-5--------------7-7-7-7-7-7--5-5-5-5-5-5-5-5-5-5-5-5|

intro- riff 1(2x)

riff 2(1x)

riff 1
hello, i've waited here for you, everlong
tonight, i throw myself into and out of the red,

out of her head she sang
riff 2
riff 1
come down and waste away with me, down with me
slow how, you wanted it to be,
i'm over my head, out of her head she sang
riff 3
and i wonder when i sing along with you
refr�o
if everything could ever feel this real forever
if anything could ever be this good again
the only thing i'll ever ask of you
you've got to promise not to stop when i say when
she sang
riff 2
riff 1
breathe out, so i can breathe you in, hold you in
and now, i know you've always been out of your head,
out of my head i sang
riff 3
and i wonder when i sing along with you
refr�o
if everything could ever feel this real forever
if anything could ever be this good again
the only thing i'll ever ask of you
you've got to promise not to stop when i say when
she sang
riff 1
riff 2
riff 4
riff 3
and i wonder
refr�o
if everything could ever feel this real forever
if anything could ever be this good again
the only thing i'll ever ask of you
g
you've got to promise not to stop when i say when

learn to fly

vers�O 1
(configura��o normal)
introrefr�o:
(guitara 1)
bsus2
f#m
e
e||-------------------------------------------------------------||
b||-------------------------------------------------------------||
g||--4-4-4-4-4-4-4/6-6-6-6-6h7r6-64-4-4-4-4-4-4-4-4-4-4-4-4-4--||
d||--x-x-x-x-x-x-x/x-x-x-x-x-x-x-xx-x-x-x-x-x-x-x-x-x-x-x-x-x--||
a||--2-2-2-2-2-2-2/4-4-4-4-4h5r4-42-2-2-2-2-2-2-2-2-2-2-2-2-2--||
e||-------------------------------------------------------------||
(guitarra 2)
b4
f#m
e
e||--0-0-0-0-0-0-0-0-0-0-0-0-0-0-0-0-0-0-0-0-0-0-0-0--||
b||--0-0-0-0-0-0-0-0-0-0-0-0-0-0-0-0-0-0-0-0-0-0-0-0--||
g||--4-4-4-4-4-4-2-2-2-2-2-2-1-1-1-1-1-1-1-1-1-1-1-1--||
d||--4-4-4-4-4-4-4-4-4-4-4-4-2-2-2-2-2-2-2-2-2-2-2-2--||
a||--2-2-2-2-2-2-4-4-4-4-4-4-2-2-2-2-2-2-2-2-2-2-2-2--||
e||--------------------------0-0-0-0-0-0-0-0-0-0-0-0--||
verso:
bsus2
f#m
e
e||-------2------------0------------0------------0--||
b||-------2------------0------------0------------0--||
g||---4-----------2---------------------------------||
d||-----4------------4---------2------------2-------||
a||--2----------4-----------------2------------2----||
e||--------------------------0------------0---------||
interludio:
g
a
e
e||--0-0-0-0-0-0-0-0/0-0-0-0-0-0-0-0-0--0--0--0--0--||
b||--0-0-0-0-0-0-0-0/0-0-0-0-0-0-0-0-0--0--0--0--0--||
g||--4-4-4-4-4-4-4-4/6-6-6-6-6-6-6-6-1--1--1--1--1--||
d||--5-5-5-5-5-5-5-5/7-7-7-7-7-7-7-7-2--2--2--2--2--||
a||--5-5-5-5-5-5-5-5/7-7-7-7-7-7-7-7-2--2--2--2--2--||
e||--3-3-3-3-3-3-3-3/5-5-5-5-5-5-5-5-0--0--0--0--0--||
"make my way back home when i learn to fly."
ponte:
b
g
d
e
g
a
e||--0-0-0-0-0-0--0-0-0-0-0--0-0-0-0-0--0-0-0-0-0-0-0-|-0-0-0-0-0-0-0-0/0-0-0-0-00-0-0--||
b||--0-0-0-0-0-0--0-0-0-0-0--0-0-0-0-0--0-0-0-0-0-0-0-|-0-0-0-0-0-0-0-0/0-0-0-0-00-0-0--||

g||--4-4-4-4-4-4--4-4-4-4-4--7-7-7-7-7--1-1-1-1-1-1-1-|-4-4-4-4-4-4-4-4/6-6-6-6-66-6-6--||
d||--4-4-4-4-4-4--5-5-5-5-5--7-7-7-7-7--2-2-2-2-2-2-2-|-5-5-5-5-5-5-5-5/7-7-7-7-77-7-7--||
a||--2-2-2-2-2-2--5-5-5-5-5--5-5-5-5-5--2-2-2-2-2-2-2-|-5-5-5-5-5-5-5-5/7-7-7-7-77-7-7--||
e||---------------3-3-3-3-3-------------0-0-0-0-0-0-0-|-3-3-3-3-3-3-3-3/5-5-5-5-55-5-5--||
"fly along with me, i can't quite make it alone." "try and make this life my
own."
outro:
e||-----------2---|---------2--||
b||-------------2-|-----4---2--||
g||-----4---------|-4---4---4--||
d||--------4------|-4---2---4--||
a||--2------------|-2-------2--||
e||---------------|------------||
(4x)

vers�O 2
intro: b4 f#m7 e � riff1
riff2
run and tell all of the angels,
this could take all night.
think i need a devil to help me get things right
hook me up a new revolution
cause this one is a lie
we sat around laughing and watched the last one die
parte 2: riff1
b9
f#m7
well, i'm looking to the sky to save me,
e
looking for a sign of life.
b9
f#m7
e
looking for something to help me burn out bright.
b9
f#m7
i'm looking for a complication,
e
looking cause i'm tired of trying.
g
a
riff1
make my way back home when i learn to fly.
riff2
i think i'm done nursing the patience,
i can wait one night.
i'd give it all away if you give me one last try.

we'll live happily ever trapped if you just save my life.
run and tell the angels that everything is all right.
slide
= parte 2
i'm looking to the sky to save me
looking for a sign of life
looking for something to help me burn out bright
i'm looking for complication
looking cause i'm tired of trying.
g
a
e
make my way back home when i learn to fly.
g
a
b
make my way back home when i learn to fly.
riff3
g
d
fly along with me, i can't quite make it alone.
g
a
b
try and make this life my own.
g
d
e
fly along with me, i can't quite make it alone.
g
a
try and make this life my own.
= parte 2
i'm looking to the sky to save me
looking for a sign of life
looking for something to help me burn out bright
i'm looking for complication
looking cause i'm tired of trying.
g
a
make my way back home when i learn to
looking to the sky to save me, aaaaa�
looking for a sign of life.
looking for something to help me burn out bright.
i'm looking for a complication,
looking cause i�m tired of try.
g
a
e
make my way back home when i learn to fly.
g
a
e
make my way back home when i learn to fly.
g
a
b
make my way back home when i learn to, to, to...

e

final

riff1:
e|--------------------------------------------------------------------|
b|--------------------------------------------------------------------|
g|--------------------------------------------------------------------|
d|-------4-4-4-4-4-4--4/10-10/11--11-11-11-11-10/9--7-7-7...-9/4------|
a|-(8/2)-2-2-2-2-2-2--2//8�-8//9---9--9--9--9--8/7--9-9-9...-7/2------|
e|--------------------------------------------------------------------|
riff2:
e|--------------------------------------------------------------------|
b|--------------------------------------------------------------------|
g|-4---------9---------7----------------------------------------------|
d|-4--------11---------7----------------------------------------------|
a|-2---------9---------9----------------------------------------------|

e|--------------------------------------------------------------------|
dedilhado:(toque junto)
e|-----2--------------------------------------------------------------|
b|----2-2-------2---------0--0--0-------------------------------------|
g|---4---4-----2-2-------1-1--1--1------------------------------------|
d|------------2---2-----2---2--2--2-----------------------------------|
a|-2------------------------------------------------------------------|
e|-----------2---------0----------------------------------------------|
riff3:
e|--------------------------------------------------------------------|
b|--------------------------------------------------------------------|
g|--------------------------------------------------------------------|
d|-4-4-4-4...5-----------------------9-9-9-9...-----------------------|
a-2-2-2-2...3-5-5-5-5...6-7-7-7-7...7-7-7-7...5-5-5-5...-6-7-7-7-7...|
e|-------------3-3-3-3...4-5-5-5-5...----------3-3-3-3...-4-5-5-5-5...|
notas da 2� parte
b
f#m7
e
g
a
d
e|--------------------------------|-----------------------------------|
b|--------------------------------|-----------------------------------|
g|-4-------------1----------------|-----7-----------------------------|
d|-4-----2-------2-----5------7---|-----7-----------------------------|
a|-2-----3-------2-----5------7---|-----5-----------------------------|
e|-------2-------------3------5---|-----------------------------------|

next year
tom: g
intro: (g d c)
g
d/f#
em cadd9
i`m in the sky tonight
g
d/f#
em
cadd9
there i can keep by your side
g
d/f#
em
watching the wide world riot
a7
and hiding out
c
d
g
i`ll be coming home next year
g d c g d c
g

d/f#

em cadd9

into the sun we climb
g
d/f#
climbing our wings
em
cadd9
will burn white
g
d/f#
em
everyone strapped in tight
a7
we`ll ride it out
c
d
g
i`ll be coming home next year
c
g
come on, get on, get on
c
g
take it till life runs out
c
no-one can find us now
a7/c#
living with our head
d
underground
g
d/f#
em
cadd9
into the night we shine
g
d/f#
em
cadd9
lighting the way we glibe by
g
d/f#
em
catch me if i get too high
a7
when i come down
c
d
g
i`ll be coming home next year
g
d/f#
em cadd9
i`m in the sky tonight
g
d/f#
em
cadd9
there i can keep by your side
g
d/f#
watching the whole
em
world wind
a7
around and round
c
d
g
i`ll be coming home next year
c
g
come on, get on, get on
c
g
take it ill fall down
c
no one can find us now
a7/c#
living with our
d
heads underground
|refr�o
| g
d/f#
em cadd9
|i`ll be coming home next year

| g
d/f#
em cadd9
|i`ll be coming home next year
|g
d/f#
em
|everything`s all right up here
|
a7
|when i come down
| c
d
g
|i`ll be coming home next year
a7
say goodbye
c
say goodbye
a7
say goodbye
c
say goodbye

d

refr�o
a7 c
d
i`ll be coming home
g
a7
next year
c
d
g
i`ll be coming home next year
g
d
g
i`ll be coming next year...

my hero
vers�o 1
-======tom: e
intro: (e c#m) 3x-(f# a)
e
c#m
e
c#m
too alarming now to talk about
e
c#m
e
c#m
take your pictures down and shake it out
e
c#m
e
c#m
e
c#m
e
c#m
truth or consequence say it aloud use that evidence race it around
a
there goes my hero
c#m
e

watch him as he goes
a
there goes my hero
c#m
e
he's ordinary
(f# a)
e
c#m
e
c#m
don't the best of them bleed it out
e
c#m
e
c#m
while the rest of them peter out
e
c#m
e
c#m
e
c#m
e
c#m
truth or consequence say it aloud use that evidence race it around
a
there goes my hero
c#m
e
watch him as he goes
a
there goes my hero
c#m
e
he's ordinary
(f# a)
e
c#m
kudos my hero
e
c#m
leaving all the best
e
c#m
your knows my hero
e
c#m
the one that's on
a
there goes my hero
c#m
e
watch him as he goes
a
there goes my hero
c#m
e
he's ordinary
a
there goes my hero
c#m
e
watch him as he goes
a
there goes my hero
c#m
e
he's ordinary
(f# a)

_______________________________________________________

vers�o 2
-======-

intro
e||-----------------------------------0-0-0-0---0-0-0-0--||
b||-----------------------------------4-5-4-0---4-5-4-0--||
g||-----------------------------------------4---------4--||
d||------------------------------------------------------||
a||------------------4-4-4-4-4-4-4-4)--------------------||
e||-(0-0-0-0-0-0-0-0-------------------------------------||
"()-> baixo"
verse
(guitar 1)
|2x
|
e||-------------------------------------------------------------||
b||--5-5-5-5-5-5-4-5-5-5-7-5-5-7---5-5-5-5-5-5-4-5-5-5-7-5-5-7--||
g||--4-4-4-4-4-4-4-4-4-4-4-4-4-4---4-4-4-4-4-4-4-4-4-4-4-4-4-4--||
d||-------------------------------------------------------------||
a||-------------------------------------------------------------||
e||-------------------------------------------------------------||
(guitar 2)
|4x
|
e||-----------------------------------||e||-------------||
b||-----------------------------------||b||-------------||
g||------------------6-6-6-6-6-6-6-6--||g||-------------||
d||--2-2-2-2-2-2-2-2-6-6-6-6-6-6-6-6--||d||-------------||
a||--2-2-2-2-2-2-2-2-4-4-4-4-4-4-4-4--||a||-----4-2-----||
e||--0-0-0-0-0-0-0-0------------------||e||--2-2---2-5--||
refr�o
e|----------------------------------------|------------------------------------b|----------------------------------------|------------------------------------g|----------8-8-8-8--9-9-9-9--11-11-11-11-|----------8-8-8-8--9-9-9-9--6-6-6-6-d|-7-7-7-7--x-x-x-x--x-x-x-x--x--x--x--x--|-7-7-7-7--x-x-x-x--x-x-x-x--x-x-x-x-a|-7-7-7-7--6-6-6-6--7-7-7-7--9--9--9--9--|-7-7-7-7--6-6-6-6--7-7-7-7--4-4-4-4-e|-5-5-5-5--------------------------------|-5-5-5-5-----------------------------------------------------------------|-------------------------------------------------------------------------------|---------------------------------------------------8-8-8-8-9-9-9-9-11-11-11-11-|-9-9-9-9--11-11-11-11--13-13-13-13-8-8-8-8-2-2-2-2-x-x-x-x-x-x-x-x-x--x--x--x--|-9-9-9-9--x--x--x--x---x--x--x--x--x-x-x-x-2-2-2-2-6-6-6-6-7-7-7-7-9--9--9--9--|-7-7-7-7--9--9--9--9---11-11-11-11-6-6-6-6-0-0-0-0-----------------------------|--------------------------------------------------------|e
--------------|b
--------------|g
--------------|d
------4-2-----|a
--2-2-----2-5-|e
interlude
e||--0-----0-------0-----0----------||
b||--0-----0-------0-----0----------||
g||--1-----1---6---1-----1---6------||
d||--2-----2---6---2-----2---6---2--||
a||--2-----2---4---2-----2---4---2--||

e||--0-----0-------0-----0-------0--||

this is a call

intro/verse
e||--0-------0------3-------------0-------3-3----0--||
b||--0-------0------3------2------0-------3-3----0--||
g||--1-------1------0------2------1-------0-0----1--||
d||--2-------2------0------2------2-------0-0----2--||
a||--2-------2------2------0------2-------2-2----2--||
e||--0-------0------3-------------0-------3-3----0--||
chorus
e||--2---------0-------0------2----0---0----3--||
b||--2---------2-------0------2----2---0----3--||
g||--3---------2-------1------3----2---1----0--||
d||--4---------2-------2------4----2---2----0--||
a||--4---------0-------2------4----0---2----2--||
e||--2-----------------0------2--------0----3--||
bridge
e||---------------------------------------||
b||------------------------4---7----------||
g||---------7--------------4---7----------||
d||---------6----5-6-2-----4---7----5--5--||
a||---------7----5-6-2-----2---5----5--5--||
e||--0--0---0----3-4-0-----2---5----3--3--||
outro
e||-----------------------------------------------------------------------------|
b||-----------------------------------------------------------------------------|
g||-----------------------------------------------------------------------------|
d||-----------------------------------------------------------------------------|
a||-----------------------------------------------------------------------------|
e||--0--0--10---0--0--10-9-10--0--0--10--0-0--10-9-10--0--0--16--0--0--16-15-16-|
e|------------------------------------------------------------------||
b|------------------------------------------------------------------||

g|------------------------------------------------------------------||
d|------------------------------------------------------------------||
a|------------------------------------------5-----------2--------2--||
e|-16-0--0--16-0-0-16-15-16--0--0-16-0--0---3-----------0--------0--||
-------------lyrics & tempo
[verse]
e
visiting is pretty
e
visiting is good
g
a
e
seems that all they ever wanted was a brother
e
this can be a secret
e
we can keep it good
g
a e
even all the ever wanting had a problem
[chorus]
f#5
a
this is a call to all my
e
f#5
past resignations
a
e
this is a call to all

g

[verse]
e
fingernails are pretty
e
fingernails are good
g
a e
seems that all they ever wanted was a marking
e
them balloons are pretty
e
big and say they should
g
ever fall to ground
a
e
call the magic marker
[chorus]
f#5
a
this is a call to all my
e
f#5
past resignations
a
e
this is a call to all
f#5
a

this is a call to all my
e
f#5
past resignations
a
it's been too long
[interlude]
[verse]
e
minicyn is
e
minicyn is
g
seems that
e
ritalin is
e
ritalin is

pretty
good
a
e
all the cysts and mollusks tend to barter
easy
good

even all the ones
a
e
who watered down the daughter
[chorus]
f#5
a
this is a call to all my
e
f#5
past resignations
a
e
this is a call to all
f#5
a
this is a call to all my
e
f#5
past resignations
a
it's been too long
[interlude]
[outro]

the best of you
verse 1:(s� guitarra)

c#
i've got another confession to make
a
i'm your fool
c#
everyone's got their chains to break
a
holdin' you
b
a
were you born to resist or be abused?
chorus:

(entra o baixo)
a
c#
eb/e
a
is someone getting the best, the best, the best, the best of you?
a
c#
eb/e
a
is someone getting the best, the best, the best, the best of you?
c#
b
a
are you gone and onto someone new?
verse 2:

c# (entra a bateria)
i needed somewhere to hang my head
a
without your noose
c#
you gave me something that i didn't have
a
but had no use
b
a
i was too weak to give in, too strong to lose
verse 3:

c#
my heart is under arrest again
a
but i break loose
c#
my head is giving me life or death
a
but i can't choose
b
i swear i'll never give in
a
i refuse
chorus:
a

c#

eb/e

a

f#m

is someone getting the best, the best, the best, the best of you?
c#
eb/e
a
is someone getting the best, the best, the best, the best of you?

f#m

c#
has someone taken your faith?
b
its real, the pain you feel
a
you trust, you must
f#m
confess
c#
eb/e
a
is someone getting the best, the best, the best, the best of you?

f#m

bridge:
gtr. 2 octaves
e|--------------------------|--------------------------|
b|--------------------------|--------------------------|
g|--6--6--6--6--6--6--6--6/-|--8--8--8--8--8--8--8--8/-|
d|--x--x--x--x--x--x--x--x--|--x--x--x--x--x--x--x--x--|
a|--4--4--4--4--4--4--4--4/-|--6--6--6--6--6--6--6--6/-|
e|--------------------------|--------------------------| |
|x2
e|--------------------------|--------------------------| |
b|--------------------------|--------------------------|/
g|--9--9--9--9--9--9--9--9/-|--6--6--6--6--6--6--6--6--|
d|--x--x--x--x--x--x--x--x--|--x--x--x--x--x--x--x--x--|
a|--7--7--7--7--7--7--7--7/-|--4--4--4--4--4--4--4--4--|
e|--------------------------|--------------------------|
oh...
oh...oh...oh...oh...
c#
has someone taken your faith?
b
its real, the pain you feel
a
the life, the love
f#m
you die to heal
c#
the hope that starts
b
the broken hearts
a
you trust, you must
f
confess
chorus

c#
eb/e
a
is someone getting the best, the best, the best, the best of you?

f#m

c#
eb/e
a
is someone getting the best, the best, the best, the best of you?

f#m

verse 4:
c# (s� guitarra)

i've got another confession my friend
a
i'm no fool
c#
i'm getting tired of starting again
a
somewhere new
b (bateria)
a
were you born to resist or be abused?
b
a
i swear i'll never give in, i refuse
chorus:
a
c#
eb/e
a
is someone getting the best, the best, the best, the best of you?
c#
eb/e
a
is someone getting the best, the best, the best, the best of you?
c#
has someone taken your faith?
b
its real, the pain you feel
a
you trust, you must
f#m
confess
c#
eb/e
a
solo)
is someone getting the best, the best, the best, the best of you?

walking after you
intro (guitar 1)
e

e

e

e

intro (guitar 2)
e|---------------------0---2---4---0---5---4---2---0---4------b|-----------------------0---0---0---0---0---0---0---0--------g|---------------------1---2---4---1---6---4---2---1---4------d|------------------------------------------------------------a|------------------------------------------------------------e|------------------------------------------------------------e

e/g#

a9

f#/bb a9

f#m
f#m

f#m

(ultimo

tonight i'm tangled in my blanket of clouds
b7
e
dreaming aloud
e
e/g#
a9
f#/bb a9
things just won't do without you matter of fact
b7
e
i'm on your back
e/g#
a9 f#/bb a9
i'm on your back
b7
e
i'm on your back
e
e/g#
a9
f#/bb a9
if you'd accept surrender, give up some more
b7
e
weren't you adored
e
e/g#
a9
f#/bb a9
i cannot be without you, matter of fact
b7
e
i'm on your back
f#/bb
a9
if you walk out on me
e
im walking after you
f#/bb
a9
if you walk out on me
e
im walking after you
c#m
a9
another heart cracked in two
f#/bb
e c#m a9 f#/bb
i'm on your back

no one knows
tabbed by alx flint
tuning: c f bb eb g c
intro:
|--------------------------------------------|
|--8------8------8------8--------------------|
|--9------9------9------9--------------------|
|--9------9------9------9--------------------|
|--7------7------7------7--------------------|
|--------------------------------15/---------|
main riff:
|------------------------|------------------------------|
|-----10----10--8--------|--10----10--8-----------------|

|-------------------9----|----------------9-------------|
|------9----9---9---9----|---9----9---9---9-------------|
|------7----7---7---7----|---7----7---7---7-------------|
|--0---------------------|--------------------15/-------|
|------------------------|------------------------------|
|-----10----10--8--------|--10----10--8-----------------|
|-------------------9----|----------------9-------------|
|------9----9---9---9----|---9----9---9---9-------------|
|------7----7---7---7----|---7----7---7---7-------------|
|--0---------------------|--------------------15/-------|
|------------------------|------------------------------|
|-----10----10--8--------|--10----10/12--10-------------|
|-------------------9----|------------------------------|
|------9----9---9---9----|---9----9---------------------|
|------7----7---7---7----|---7----7---------------------|
|--0---------------------|--------------------15/-------|
|------------------------|---------------------------------|
|-----10----10--8--------|--10----10--8-------8------------|
|-------------------9----|----------------9---9----<9>-----|
|------9----9---9---9----|---9----9---9---9---9----<9>-----|
|------7----7---7---7----|---7----7---7---7----------------|
|--0---------------------|---------------------------------|
verse i:
|--------------------------------------------|
|-----8-------8-------8-------8--10--8-------|
|-----9-------9-------9-------9---9--9-------|
|-----9-------9-------9-------9---9--9-------|
|-----7-------7-------7-------7---7--7-------|
|-0-------0-------0-------0------------------|
|----------------------------------------------------------------|
|----------------------------------------------------------------|
|--8--8--8--8--8--8--8-------12--12--12--12--12--12--12--12------|
|--9--9--9--9--9--9--9--7h9--13--13--13--13--13--13--13--13------|
|--9--9--9--9--9--9--9--7h9--13--13--13--13--13--13--13--13------|
|--7--7--7--7--7--7--7--7----11--11--11--11--11--11--11--11------|
|------------------------|------------------------------|
|-----10----10--8--------|--10----10--8-----------------|
|-------------------9----|----------------9-------------|
|------9----9---9---9----|---9----9---9---9-------------|
|------7----7---7---7----|---7----7---7---7-------------|
|--0---------------------|--------------------15/-------|
|------------------------|---------0-----------|
|-----10----10--8--------|---8-----4bend-------|
|-------------------9----|---------------------|
|------9----9---9---9----|---9-----------------|
|------7----7---7---7----|---7-----------------|
|--0---------------------|---------------------|
verse ii:
|--------------------------------------------|
|-----8-------8-------8-------8--10--8-------|

|-----9-------9-------9-------9---9--9-------|
|-----9-------9-------9-------9---9--9-------|
|-----7-------7-------7-------7---7--7-------|
|-0-------0-------0-------0------------------|
|--------------------------------------------------------------------------|
|-----10------10------10------10-------------------------------------------|
|--8---8---8---8---8---8---8---8-------12--12--12--12--12--12--12--12------|
|--------------------------------------13--13--13--13--13--13--13--13------|
|--9---9---9---9---9---9---9---9---9-/-13--13--13--13--13--13--13--13------|
|--7---7---7---7---7---7---7---7---7-/-11--11--11--11--11--11--11--11------|
|------------------------|-----------------------------------|
|-----10----10--8--------|--10----10-------------------------|
|-------------------9----|-----------------------------------|
|------9----9---9---9----|---9----9--------------------------|
|------7----7---7---7----|---7----7-----------7--------------|
|--0---------------------|--------------0h5/7h9---9p7p-0-------|
|------------------------|------------------------------|
|-----10----10--8--------|--10----10--8-----------------|
|-------------------9----|----------------9-------------|
|------9----9---9---9----|---9----9---9---9-------------|
|------7----7---7---7----|---7----7---7---7-------------|
|--0---------------------|--------------------15/-------|
|----------------------------7----------------------------------------------|
|-----10------10------10--10----10------------------------------------------|
|--8---8---8---8---8---8---8----8-------12--12--12--12--12--12--12--12------|
|---------------------------------------13--13--13--13--13--13--13--13------|
|--9---9---9---9---9---9---9----9---9-/-13--13--13--13--13--13--13--13------|
|--7---7---7---7---7---7---7----7---7-/-11--11--11--11--11--11--11--11------|
|------------------------|-----------------------12------|
|-----10----10--8--------|--10----10--8----10b-----------|
|-------------------9----|--------------------------9~---|
|------9----9---9---9----|---9----9---9------------------|
|------7----7---7---7----|---7----7---7------------------|
|--0---------------------|--------------------15/--------|
|------------------------|------------------------|
|-----10----10--8--------|--10----10--8-----------|
|-------------------9----|----------------9-------|
|------9----9---9---9----|---9----9---9---9-------|
|------7----7---7---7----|---7----7---7---7-------|
|--0---------------------|------------------------|
chorus 2x
|------------------------------------------------------------------|
|------------------------------------------------------------------|
|--9--11-12-11---14--12---16--14-----------------------------------|
|----------------------------------9--7--9--7--9--7--9--7--9--7----|
|--7--9--10--9---12--10---14--12---9--7--9--7--9--7--9--7--9--7----|
|----------------------------------7--7--7--7--7--7--7--7--7--7----|
|-----------------------------------------------------------------|
|-----------------------------------------------------------------|
|--12-11--9--7---9--11--12-11-------------------------------------|

|---------------------------------9--7--9--7--9--7--9--7--9--7----|
|--10--9--7--5---7--9---10--9-----9--7--9--7--9--7--9--7--9--7----|
|---------------------------------7--7--7--7--7--7--7--7--7--7----|
|------------------------------------------------------------------|
|------------------------------------------------------------------|
|--9--11-12-11---14--12---16--14-----------------------------------|
|----------------------------------9--7--9--7--9--7--9--7--9--7----|
|--7--9--10--9---12--10---14--12---9--7--9--7--9--7--9--7--9--7----|
|----------------------------------7--7--7--7--7--7--7--7--7--7----|
|------------------------|------------------------------|
|-----10----10--8--------|--10----10--8-----------------|
|-------------------9----|----------------9-------------|
|------9----9---9---9----|---9----9---9---9-------------|
|------7----7---7---7----|---7----7---7---7-------------|
|--0---------------------|--------------------15/-------|
|------------------------|---------0-----------|
|-----10----10--8--------|---8-----4bend-------|
|-------------------9----|---------------------|
|------9----9---9---9----|---9-----------------|
|------7----7---7---7----|---7-----------------|
|--0---------------------|---------------------|
verse iii. same as i and ii with fill in's already tabbed above. figue out where
they go
chorus
bridge
|-------------------------------------------------------|
|-------------------------------------------------------|
|--9---9--9---9--9---9--9---9--9---9--9---9--9----------|
|--9---9--9---9--9---9--9---9--9---9--9---9--9----------|
|--7---7--7---7--7---7--7---7--7---7--7---7--7----------|
|--0---0--0---0--0---0--0---0--0---0--0---0--0----------|
|----------------------|
|----------------------|
|---------8------------|
|--9--10--8------------|
|--9--10--6--9--7--9---|
|--7--8------7--5--7---|
bass solo
|-----------------------------------------------------------|
|-----------------------------------------------------------|
|--7---7--7---7--7---7--7---7--5h7--7--7---7--7---7--7---7--|
|-----------------------------------------------------------|
|------------------------------------------------------------|
|-----------------5h7--7--7----------------------------------|
|--5h7--7--7---7-------------5h7--7--7-----------------------|
|------------------------------------0--5h7--7--7------------|

------|------|------|--------0--------0---------0----------0--|
------|------|------|--5/-7-----7/-8-----8/-10-----10/-12-----|
------|------|------|-----------------------------------------|
------|------|------|-----------------------------------------|
------|------|------|-----------------------------------------|
------|------|------|-----------------------------------------|

--0~--------0-------0-------|--0-------0-------------0-------|
--12~-------12/-17--17/-15--|--15/-19--19/-15--15----17/-15--|
----------------------------|--------------------------------|
----------------------------|--------------------------------|
----------------------------|--------------------------------|
----------------------------|--------------------------------|

--0---------------------------|---------------------------|
--0/-12------12h---10/---8----|--10~-------10--8--7--8~---|
------------------------------|---------------------------|
------------------------------|---------------------------|
------------------------------|---------------------------|
------------------------------|---------------------------|

------------------------|-------------------------|----------------------------|
------8--7--5--7~-------|--7-8-7-5-7/-12~---------|-------8----12----12b-------|
------------------------|-------------------------|--9-------------------------|
------------------------|-------------------------|----------------------------|
------------------------|-------------------------|----------------------------|
------------------------|-------------------------|----------------------------|

----------------------------|----------------------------|
-------8----12----12b-------|-------8----12----12b-------|
--9-------------------------|--9-------------------------|
----------------------------|----------------------------|
----------------------------|----------------------------|
----------------------------|----------------------------|

--14h-11--------------14--11--------------|
----------12r-----------------12r---------|
------------------12------------------12--|
------------------------------------------|
------------------------------------------|
------------------------------------------|

--14h-11--------------14--11--------------|--12----------------|----------|
----------12r-----------------12r---------|--------------------|----------|
------------------12------------------12--|--------------------|----------|
------------------------------------------|--------------------|----------|

------------------------------------------|--------------------|----------|
------------------------------------------|--------------------|----------|

bass solo ii
|-----------------------------------------------------|
|---0--12--0--12--0--12--0--12--0--12-----------------|
verse iv: same as ii
end on.....
|------------------------------|
|--8------8------8------8------|
|--9------9------9------9------|
|--9------9------9------9------|
|--7------7------7------7------|
|------------------------------|

queens of the stone age lyrics
no one knows no one
we get some rules to follow
that and this
these and those
no one knows
we get these pills to swallow
how they stick
in your throat
tastes like gold
oh, what you do to me
no one knows
and i realize
indeed a fool
and i realize
indeed a fool
ahh

you�re mine
of mine
you�re mine
of mine

i journey through the desert
of the mind
with no hope
i found low
i drift along the ocean
dead lifeboats in the sun
and come undone
pleasently caving in
i come undone

and i realize
indeed a fool
and i realize
indeed a fool
ahhh

you�re mine
of mine
you�re mine
and mine

heaven smiles above me
what a gift there below
but no one knows
a gift that you give to me
no one knows

12:51

solo 1
e|0|
b|0|
g|1|
d|-|
a|-|
e|-|
solo 2
e|5|
b|5|
g|5|
d|-|
a|-|
e|-|
solo 3
e|---------------------------|
b|9-5-9-5-9-7-5-7-5-7-5-7-5-4|
g|---------------------------|
d|---------------------------|
a|---------------------------|
e|---------------------------|

solo 4
e|---------------------------------------|
b|-12-9-7-9-12-9-7-9-12-9-7-9-5-9-7-9----|
g|---------------------------------------|
d|---------------------------------------|
a|---------------------------------------|
e|---------------------------------------|
solo 5
e|5--------5|
b|------5---|
g|---5------|
d|----------|
a|----------|
e|----------|
solo 6
e|0--------0|
b|------0---|
g|---1------|
d|----------|
a|----------|
e|----------|

solo 1 (2 vezes)
solo 2
(am e) 2 vezes

e
a
talk to me now i'm older
f#m
b
your friend told you 'cause i told her
e
a
friday nights have been lonely
f#m
b
change your plans and then phone me

(e c#m b) 4 vezes

::

e
a
we could go and get 40s

::
::
::
::
::
::
::
::

solo 4 (2 vezes)

::
::

solo 3 (2 vezes)

f#m
b
fuck goin' to that party
e
a
oh really your folks are away now?
f#m
b
alright let's go you convinced me

(e c#m b) 4 vezes

::

::
::
::
::
::
::

solo 3 (2 vezes)

solo 4 (2 vezes)

am
e
12:51 is the time my voice
am
found the words i sought
e
is it the stage i want?
respectivo
am
e5
toca o
the world is shutting out for us
sucessivamente.
am
vezes).
we were tense for sure
e
but we was con-fi-dent...
e
a
kiss me now and i'm older
f#m
b
i won't try to control you
e
a
friday nights have been lonely
f#m
b
take it slow but don't warn me
e
am
we'd could go and get 40s
f#m
b
then we'd go to some party
e
a
oh really your folks are away now?
f#m
b
alright i'm coming

::
::
::
::
::

solos 5 e 6 (na passagem da nota se toca o

::

solo e p�ra. quando for para outra nota se

::

respectivo solo e p�ra. e assim

::

exs: a5 (solo 5) e e5 (solo 6). total = 8

::
::
::
::
::
::
::
::
::
::
::
::
::
::
::
::
::
::
::
::
::

i'll be right there

(e c#m b) 4 vezes

::

solo 4 (2 vezes)

solo 3 (4 vezes)

solo 1 (2 vezes)

juicebox
composi��o: the strokes
guitar
b - bend
s - slide
intro
p.m.
a|--------1-0-----|
e|0-0-3-0-----3-1-|

8 vezes

riff 1
e|-------------|--------------|
b|-------------|--------------|
g|9-9--7-9-9--9|7-7--7-----7-7|
d|9-9--7-9-9--9|7-7--7-8-8-7-7|
a|7-7--5-7-7--7|5-5--5-8-8-5-5|
e|-------------|-------6-6----|

4 vezes

riff da intro
everybody sees me
but it's not that easy
standing in my life fields
standing in a light field
waiting for some action
waiting for some action over
why won't you come over here?
riff 1
why won't
we've got
why won't
we've got

you come over here?
a city to love
you come over here?
a city to love

riff 2
e|--------------|--------------|--------------|--------------| --\
b|--------------|--------------|--------------|--------------|
\
g|3--3-3--------|3--3-3--------|3--3-3--------|3--3-3--------|
|
d|3--3-3--------|3--3-3--------|3--3-3--------|3--3-3--------|
|
a|1--1-1-------0|1--1-1-------0|1--1-1-------0|1--1-1-------1|
|
e|-------0-1-3--|--------0-1-3-|-------0-1-3--|-------0-1-3--|
\
2 vezes

e|--------------|--------------|--------------|--------------|
/
b|--------------|--------------|--------------|--------------|
|
g|5--5-5--------|5--5-5--------|5--5-5--------|5--5-5--------|
|
d|5--5-5--------|5--5-5--------|5--5-5--------|5--5-5--------|
|
a|3--3-3-------1|3--3-3-------1|3--3-3-------1|3--3-3-------0|
/
e|-------0-1-3--|--------0-1-3-|-------0-1-3--|-------0-1-3--| --/
oh damn good years
you've got? so show me
i know you messed up
when i saw you
riff 3
e|---------------|--------------|---------------|--------------|
b|---------------|--------------|---------------|--------------|
g|3-3-3-3-3-3----|2--2-2-2-2----|---------------|--------------|
d|3-3-3-3-3-3----|2--2-2-2-2----|5-5-5-5-5-5-5-5|3--3-3-3-3-3-3|
a|1-1-1-1-1-1----|0--0-0-0-0----|5-5-5-5-5-5-5-5|3--3-3-3-3-3-3|
e|------------1-3|-----------0-1|3-3-3-3-3-3-3-3|1--1-1-1-1-1-1|
you're
you're
you're
you're

cold
so cold
so cold
so cold

solo
e|---------------------------|(ou�a o solo primeiro e vera que essa parte do solo
a palhetada eh bm
b|12-12-12-12-12-12-12-------| rapida)
g|12-12-12-12-12-12-12-------|
d|---------------------------|
a|---------------------------|
e|---------------------------|
e|------12-------12------|12-------12-----------|
b|11-12----11-12----11-12|---11-12----12-11-10--|
g|---------------------------------------------9|
e|---------------|-----|(notas na casa 12 igual ao inicio do solo)
b|12-12-12-12-14b|-----|
g|12-12-12-12-14b|19s--|
d|---------------|-----|
a|---------------|-----|
e|---------------|-----|
e|10-10----------------|9-9---------------|8-----------------|7-----------------|
b|------10---11-10-8---|----10---11-10-8--|----10---11-10-8--|----10---11-10-8--|
g|---------9----------9|-------9---------9|--9----9---------9|--9----9---------9|
e|10-10----------------|9-9---------------|
b|------10---11-10-8---|----10---11-10-8--|
g|---------9----------9|-------9---------9|
e|-------------------------------------|-------------------|
b|-------------------12-------17-15-12-|17-15-12---------12|
g|12----12-14--12-14----14-12----------|---------14-12---12|
d|---14--------------------------------|---------------14--|

(repete inteira a musika)
riff da intro
nobody decieve me
everything's too easy
standing in the life fields
standing in the light field
waiting for some action
waiting for some action she said
why won't you come over here?
riff 1
why won't
we've got
why won't
we've got

you come over here?
a city to love
you come over here?
a city to love

riff 2
oh down the soul
and i said "set free"
you never chose me
for a while it was nice
but it's time to say goodbye
riff 3
you're
you're
you're
you're

cold
so cold
so cold
so cold

riff 4
e|5--5-5-x-x-x-x|
b|6--6-6-x-x-x-x|
g|7--7-7-x-x-x-x|
d|7--7-7-x-x-x-x|
a|5--5-5-x-x-x-x|
e|--------------| 4 vezes
riff 3
no no no cold
you're so cold
you're so cold
you're so cold
riff 4
riff 3
oh no no no no cold
you're so cold
you're so cold
you're so cold
riff 4
ooooh you should go

reptilia
intro:
e|-----------------------------------------------------|
b|-----------------------------------------------------|
g|7-7--7-----7-7--7------------------------------------|
d|-------9-7--------9-7--------------------------------|
a|-----------------------11-11-11-14-17--11-11-11-14-17|
e|-----------------------------------------------------|
toca a intro:
he seemed impressed by the way you came in.
"tell us a story
i know you're not boring"
i was afraid that you would not insist.
"you sound so sleepy
just take this, now leave me"
i said please don't slow me down
if i'm going too fast
you're in a strange part of our town
break:
quem usa corda de nylon pode ignorar os "x" no break
e|---------------------------------------------------------------------------|
b|15-15--15-10-10--10-12-12--12-14-14--14-12-12--12-14-14--14-10-10--10-15-15|
g|---------------------------------------------------------------------------|
d|---------------------------------------------------------------------------|
a|14-14--14-9--9---9--10-10--10-12-12--12-10-10--10-12-12--12-9--9---9--14-14|
e|---------------------------------------------------------------------------|
toca a break:
yeah, the night's not over
you're not trying hard enough,
our lives are changing lanes
you ran me off the road,
riff:
e|--10---------09---------10---------12---------10----------12--------05----10---|
b|12--12-10-10---10-12-12---12-14-14---14-12-12---12-14-14----14-7-0-7--07-12-12-|
g|-------------------------------------------------------------------------------|

d|-------------------------------------------------------------------------------|
a|-------------------------------------------------------------------------------|
e|-------------------------------------------------------------------------------|
toca o riff:
the wait is over,
i'm now taking over,
you're no longer laughing
i'm not drowning fast enough.
solo:
e|-4-----------------------|-4-------------------|
b|---7-5-7-5---5-----------|---7-5-7-5---5-------|
g|-----------7---7-6-7-6-4-|-----------7---7-6-4-|
d|-------------------------|---------------------|
a|-------------------------|---------------------|
e|-------------------------|---------------------|
3 vezes
e|4-7-7-4h7h5--7-10-7-4h7h5--9-12^-7-4h7h5--9-12^-7-4h7h5|
b|-------------------------------------------------------|
g|-------------------------------------------------------|
d|-------------------------------------------------------|
a|-------------------------------------------------------|
e|-------------------------------------------------------|
e|--4-----------------------|--4-------------|
b|----7-5-7-5---5-----------|----7-5-7-5-----|
g|------------7---7-6-7-6-4-|------------7-4-|
d|--------------------------|----------------|
a|--------------------------|----------------|
e|--------------------------|----------------|
bm e (somente essas notas)
now every time that i look at myself
"i thought i told you
this world is not for you"
toca a intro:
e|-----------------------------------------------------|
b|-----------------------------------------------------|
g|7-7--7-----7-7--7------------------------------------|
d|-------9-7--------9-7--------------------------------|
a|-----------------------11-11-11-14-17--11-11-11-14-17|
e|-----------------------------------------------------|
the room is on fire and she's fixin her hair
"you sound so angry
just calm down, you found me"

i said please don't slow me down
if i'm going too fast
you're in a strange part of our town
break:
e|---------------------------------------------------------------------------|
b|15-15--15-10-10--10-12-12--12-14-14--14-12-12--12-14-14--14-10-10--10-15-15|
g|---------------------------------------------------------------------------|
d|---------------------------------------------------------------------------|
a|14-14--14-9--9---9--10-10--10-12-12--12-10-10--10-12-12--12-9--9---9--14-14|
e|---------------------------------------------------------------------------|
toca o break:
yeah, the night's not over
you're not trying hard enough
our lives are changing lanes
you ran me off the road,
riff:
e|--10---------09---------10---------12---------10----------12--------05----10---|
b|12--12-10-10---10-12-12---12-14-14---14-12-12---12-14-14----14-7-0-7--07-12-12-|
g|-------------------------------------------------------------------------------|
d|-------------------------------------------------------------------------------|
a|-------------------------------------------------------------------------------|
e|-------------------------------------------------------------------------------|
toca o riff:
the wait is over
i'm now taking over,
you're no longer laughing
i'm not drowning fast enough.

final:(abafar a �ltima nota)

razorblade
intro:
a
f#m
a
f#m

bm
bm

d

bm

a
bm
oh the razor blade, that's what i call love

g|10^^^---10|
d|--------9-|

a
oh bet you pick it up and mess around with it
bm
if i put it down
a
e (bar chord)
it gets extremely complicated; anything
e
to forget everything
a
bm
got to take me out, at least once a week
a
bm
whether i'm in your arms or i'm at your feet
a
i know exactly what you're thinking
e
you won't say it now
e
but in your heart it's loud
a
f#m
bm
oh no, my feelings are more important than yours
a
f#m
bm
oh, drop dead, i don't care, i won't worry.
bm
there you go
a
a

f#m
f#m

bm
bm

d

a
bm
oh the razor blade, wish it would snap this rope
a
bm
the world is in your hand or it slits your throat
a
e
at times it's not that complicated
anything
e
to forget everything
a
bm
he would never talk, but he was not shy
a
bm
she was a street smart girl, but she could not lie
a
e
they were perfect for each other; say it now
e
'cause in your heart it's loud
a
f#m
bm
oh no, my feelings are more important than yours
a
f#m
bm
oh, drop dead, i don't care, i won't wear it
oh!
a
a

f#m
f#m

bm
bm

a
f#m
bm
sweetheart, your feelings are more important, of course, of course

a
f#m
everyone who wanted everything that we would take from them
bm
i don't wanna know, i don't wanna know, tell me tell me tell me tell me
d
bm
a
no, don't, okay

trying your luck
obs.: o s�mbolo para levantar a corda eu naum sabia e substitui por
lc = levanta corda.
intro 1 2x: guitarra 1 - (am f dm g em) - esta parte � tocada no ritmo da guitarra
solo
intro 2 2x: guitarra 2 = guitarra solo
e|-------------------------------------------------------------------|
b|-------------------------------------------------------------------|
g|--5-5-5-5-5-5-5-v�rias vezes----------4-4-4-4-4-4-4-4-poucas vezes-|
am
f
you said you couldn't stay
dm
g
em
you've seen it all before, i know
am
f
it shows you on their way
dm
g
oh, honey, that's okay
solo 1: guitarra 2, acompanha os versos abaixo
d|-------------------------------------------------------------------|
a|--8-8-5-5-3-3-7-7--8-8-5-5-3-3-2-2---------------------------------|
e|-------------------------------------------------------------------|
dm
no harm, he's armed
am
setting off all your alarms
dm
when i find out
am
b
i hope it's you who's set this trap
intro 2: guitarra 2, acompanha os versos abaixo
am

f

and storefronts rarely changed
dm
g
at least i'm on my own again
em
am
f
instead of anywhere with you
dm
g
em
oh, tell me it's all the same
solo 2: guitarra 2, acompanha o verso abaixo - obs: a base � a intro 1
d|-----------------------------------------------------------------------------------|
a|------------7-8-8-7-8--3-5-5-3-5--5-3-----5-7-7-5-7-----------7-8-8-7-8--3-5-53-5--|
e|--3-5-5-3-5---------------------------5-3-----------3-5-5-35-----------------------|
d|-----------------------------------------------------------------------------------|
a|--5-3-----5-7-7-57-----------------------------------------------------------------|
e|------53---------------------------------------------------------------------------|
d|-----------------------------------------------------------------------------------|
a|--8-8-5-5-3-3-7-7--8-8-5-5-3-3-22--------------------------------------------------|
e|-----------------------------------------------------------------------------------|
am
f
dm
g
and i lost my place again
em
i know this is so real
am
f
dm
g
but i'll try my luck with you
emenda solo 2 na intro 2 2x : guitarra 2, acompanha os versos abaixo
em
am
this life is on my side
f
dm g
well, i am your one
em
am
f dm g em
believe me, this is a chance oh oh oh
am
f
i see what is for sale
dm
g
em
he's trying hard to give his job a chance
am
f
oh, it's never gonna be
dm
g
em
it's habit i agree

intro 2: 2x guitarra 2, acompanha os versos abaixo
am
f
the signal don't seem right
dm
g
em
it last for just one night and then
am
f
i'm sorry that i said
dm
g
em
that we were just good friends
solo 1: guitarra 2, acompanha os versos abaixo
dm
no harm, he's armed
am
setting off all your alarms
dm
it's right, i can't
am
b
be there in time, now think about that
solo 3: guitarra 2. obs: levanta a corda = lc - obs: a base � a intro 1
e|------------------------------------------------------------16lc14------------------|
b|-13-12----13-12----------13-15-15lc-----------13-15-15lc------------1614------------|
g|-------14-------14-12/14------------14--12/14------------16---------------1615------|
e|---------------------------------------------------------------14-14-14-13/1414-14--|
b|-----------------------------14--14/16-16-16-14/16-16-1614/16-----------------------|
g|-13/15--15-15--13/15--1515----------------------------------------------------------|
e|--13/14-14--16-16-16-1616/5---------------------------------------------------------|
b|------------------------------------------------------------------------------------|
g|------------------------------------------------------------------------------------|
solo 2: guitarra 2, acompanha os versos abaixo
am
f
dm
g
and i lost my place again
em
i know this is so real
am
f
dm
g
but i'll try my luck with you
em
am
this life is on my side
intro 2 2x: guitarra 2, acompanha os versos abaixo

f

dm g
well, i am your one
em
am
f dm g em g g# am
believe me, this is a chance oh oh oh

you only live once
[guitar 1]
intro

(palm-muted) x4
e||-9---7---9---6--------|
b||-9---9---7---7--------|
g||-9---9---8---6--------|
d||----------------------|
a||----------------------|
e||----------------------|
(palm-muted)
e||-----------------------------------------------|
b||-----------------------------------------------|
g||-----------------------------------------------|
d||--9-99-9-9-9-9-9-9--9-99-9-9-9-9-9-9-----------|
a||--7-77-7-7-7-7-7-7--7-77-7-7-7-7-7-7-----------|
e||-----------------------------------------------|\
e||-----------------------------------------------|/
b||-----------------------------------------------|
g||-----------------------------------------------|
d||--------------------11-1111-11-11-11-11-11-11--|
a||--9-99-9-9-9-9-9-9---9--9-9--9--9--9--9--9--9--|
e||--7-77-7-7-7-7-7-7-----------------------------|
verse.
x16
x8
x8
e||---------|---------|------------|
b||---------|---------|------------|
g||---------|---------|------------|(x 4)
d||--9-9-9--|---------|--11-11-11--|
a||--7-7-7--|--9-9-9--|---9--9--9--|
e||---------|--7-7-7--|------------|
refr�o.

x4

(x2)

c# e g# f#
b d# f# e
e||---------------------|-----------------|
b||---------------------|-----------------|
g||-----9--13--11-------|----8--11--9-----|
d||-11--9--13--11-------|-9--8--11--9-----|
a||-11--7--11--9--------|-9--6--9---7-----|
e||-9-------------------|-7---------------|
(palm-muted)
e||-----------------------------------------------|
b||-----------------------------------------------|
g||-----------------------------------------------|
d||--9-99-9-9-9-9-9-9--9-99-9-9-9-9-9-9-----------|
a||--7-77-7-7-7-7-7-7--7-77-7-7-7-7-7-7-----------|
e||-----------------------------------------------|\
e||-----------------------------------------------|/
b||-----------------------------------------------|
g||-----------------------------------------------|
d||--------------------11-1111-11-11-11-11-11-11--|
a||--9-99-9-9-9-9-9-9---9--9-9--9--9--9--9--9--9--|
e||--7-77-7-7-7-7-7-7-----------------------------|

(x2)

verse.
x16
x8
x8
e||---------|---------|------------|
b||---------|---------|------------|
g||---------|---------|------------|(x 4)
d||--9-9-9--|---------|--11-11-11--|
a||--7-7-7--|--9-9-9--|---9--9--9--|
e||---------|--7-7-7--|------------|
refr�o.
x4
c# e g# f#
b d# f# e
e||---------------------|-----------------|
b||---------------------|-----------------|
g||-----9--13--11-------|----8--11--9-----|
d||-11--9--13--11-------|-9--8--11--9-----|
a||-11--7--11--9--------|-9--6--9---7-----|
e||-9-------------------|-7---------------|
no final
x5
e||--7--x--7-7-x-x------|--7--|
b||--7--x--7-7-x-x------|--7--|
g||--8--x--8-8-x-x------|--8--|
d||--9--x--9-9-x-x------|--9--|
a||---------------------|-----|
e||---------------------|-----|
[guitar 2]
intro.
x2
e||--9-9-9-9-9--7--7--7-7--7---9-9-9-9-9--6--6--6-6--6--|
b||--9-9-9-9-9--9--9--9-9--9---7-7-7-7-7--7--7--7-7--7--|
g||--9-9-9-9-9--9--9--9-9--9---8-8-8-8-8--6--6--6-6--6--|
d||-----------------------------------------------------|
a||-----------------------------------------------------|
e||-----------------------------------------------------|

verse.
e||--9-9-9-9-9--7--7--7-7--7---9-9-9-9-9---------------------|
b||--9-9-9-9-9--9--9--9-9--9---7-7-7-7-7--11--11--11-12--11--|
g||--9-9-9-9-9--9--9--9-9--9---8-8-8-8-8--11--11--11-13--11--|
d||---------------------------------------11--11--11-11--11--|
a||----------------------------------------------------------|
e||----------------------------------------------------------|
e||--9-9-9-9-9--7--7--7-7--7---9-9-9-9-9--6--6--6-6--6--|
b||--9-9-9-9-9--9--9--9-9--9---7-7-7-7-7--7--7--7-7--7--|
g||--9-9-9-9-9--9--9--9-9--9---8-8-8-8-8--6--6--6-6--6--|
d||-----------------------------------------------------|
a||-----------------------------------------------------|
e||-----------------------------------------------------|
e||--9-9-9-9-9--7--7--7-11-11-9---9-9-9-9-9--6--6-------14--------|
b||--9-9-9-9-9--9--9--9-9--9--9---7-7-7-7-7--7--7--7/11----14-11--|
g||--9-9-9-9-9--9--9--9-9--9--9---8-8-8-8-8--6--6-----------------|
d||---------------------------------------------------------------|
a||---------------------------------------------------------------|
e||---------------------------------------------------------------|
e||--9-9-9-9-9--7--7--7-7--7---9-9-9-9-9--6--6--6-6--6--|
b||--9-9-9-9-9--9--9--9-9--9---7-7-7-7-7--7--7--7-7--7--|
g||--9-9-9-9-9--9--9--9-9--9---8-8-8-8-8--6--6--6-6--6--|
d||-----------------------------------------------------|
a||-----------------------------------------------------|
e||-----------------------------------------------------|
chorus
x2
e||--4-/-7/11/-9------------------|--2-/-6/-9/7-----------------|
b||--5-/-9/12/11--1111/10/9////2--|--4-/-7/11/9--9999/8/7////2--|
g||--6-/-9/13/11--1111/10/9////2--|--4-/-8/11/9�-9999/8/7////2--|
d||-------------------------------------------------------------|
a||-------------------------------------------------------------|
e||-------------------------------------------------------------|
solo.
e||--------------------------------------------------|
b||--12b(15)r12-11------7----------------------------|
g||-----------------13�-9b(11)(11)-9-----------------|
d||----------------------------------9-9/13-13-11-9--|
a||--------------------------------------------------|
e||--------------------------------------------------|
e||--11--9-------------------------------------------|
b||--------11b(12)11---9-----------------------------|
g||-------------------11b(13)(13)11------------------|
d||---------------------------------9-9/14-14-13-9---|
a||--------------------------------------------------|
e||--------------------------------------------------|
e||--12--11--------------------12-----12-----9---11-11-9---------------|
b||---------14�10b(11)10--10-14--14-12--12-11-11---------12--11-////5--|
g||--------------------------------------------------------------------|
d||--------------------------------------------------------------------|
a||--------------------------------------------------------------------|
e||--------------------------------------------------------------------|

>intro
>verse
>chorus
solo.
e||--------------------------------------------------|
b||--12b(15)r12-11------7----------------------------|
g||-----------------13�-9b(11)(11)-9-----------------|
d||----------------------------------9-9/13-13-11-9--|
a||--------------------------------------------------|
e||--------------------------------------------------|
e||--11--9-------------------------------------------|
b||--------11b(12)11---9-----------------------------|
g||-------------------11b(13)(13)11------------------|
d||---------------------------------9-9/14-14-13-9---|
a||--------------------------------------------------|
e||--------------------------------------------------|
e||--12--11--------------------12-----12-----9---11-9-----------------------------------|
b||---------14�10b(11)10--10-14--14-12--12-11-11-------12--11--9------------------------|
g||------------------------------------------------------------11b(13)1311--------------|
d||-------------------------------------------------------------------------99/14-14-13-|
a||-------------------------------------------------------------------------------------|
e||-------------------------------------------------------------------------------------|
no fim...
x23
e||----11------11------|--11--|
b||--------12------12--|--12--|
g||--11--11--11--11----|--11--|
d||--------------------|------|
a||--------------------|------|
e||--------------------|------|

ke me out
i say don�t you know
you say you don�t know
i say... take me out
i choose this could die

i choose this could die
i want you... to take me out
i
i
i
i

know
know
know
know

i
i
i
i

won�t
won�t
won�t
won�t

be
be
be
be

leaving
leaving
leaving
leaving

here(with you)
here(with you)
here (with you)
here (with you)

ain't no room
intro :
e----------------------------------------------------------------------------|
b----------------------------------------------------------------------------|
g--9-7-9-7-9-7-9-7-9--7-5-7-5-7-5-7-5-7--------------------------------------|
d---------------------------------------7-5-7-5-7-5-7-5-7--7-5-7-5-7-5-7-5-7-|
(2x)
a----------------------------------------------------------------------------|
e----------------------------------------------------------------------------|
verse :
e------------------------------------------------------------------|
b------------------------------------------------------------------|
g----7---7---7---7-----------------7---7---7---7-------------------|
d----7---7---7---7--7---7---7---7--7---7---7---7--7---7---7---7----|
a----5---5---5---5--7---7---7---7--5---5---5---5--7---7---7---7----|
e-------------------5---5---5---5-----------------5---5---5---5----|
pre-chorus :
e-----------------------------------------------------------------------|
b-----------------------------------------------------------------------|
g----5--5---7--7--------------5--5---7--7-------------------------------|
d----5--5---7--7--7--7--7--7--5--5---7--7--7--7--7--7--7-7-7-7-7-7-7----|
a----3--3---5--5--7--7--7--7--3--3---5--5--7--7--7--7--7-7-7-7-7-7-7----|
e-----------------5--5--5--5---------------5--5--5--5--5-5-5-5-5-5-5----|
pm. . . . . . .
chorus 1 :
e-------------------------------------------------------------------------|
b-------------------------------------------------------------------------|
g---7-7-7-7--5-5-5-5-------------------7-7-7-7--5-5-5-5-------------------|
d---7-7-7-7--5-5-5-5--7-7-7-7-7-7-7-7--7-7-7-7--5-5-5-5--7-7-7-7-7-7-7-7--|
a---5-5-5-5--3-3-3-3--7-7-7-7-7-7-7-7--5-5-5-5--3-3-3-3--7-7-7-7-7-7-7-7--|
e---------------------5-5-5-5-5-5-5-5--------------------5-5-5-5-5-5-5-5--|
repeat intro
repeat verse
repeat pre-chorus

chorus 2 : let chords ring
e-----------------------------------------------|
b-----------------------------------------------|
g---7---5-------------7---5---------------------|
d---7---5---7---7-----7---5---7-7-7-7-7-7-7-7---|
a---5---3---7---7-----5---3---7-7-7-7-7-7-7-7---|
e-----------5---5-------------5-5-5-5-5-5-5-5---|
pm. . . . . . .
ehhhhhhhh!!! the vineeeessssss

=d

anysound
composi��o: craig
intro:
c,d,c, a
e|-------------------i
b|-------------------i
g|-------------------i
d|--5-7-5------------i
a|--3-5-3-7---x-x-x--i
e|--------5---x-x-x--i
riff: verso
c,d,c, a
e|-------------------i
b|-------------------i
g|-------------------i
d|--5-7-5------------i
a|--3-5-3-7---x-x-x--i
e|--------5---x-x-x--i
refr�O:
d, c
e|-----------------------------------i
b|-----------------------------------i
g|-----------------------------------i
d|--7-7-7-7-7-7-7-7-5-5-5-5-5-5-5-5--i
a|--5-5-5-5-5-5-5-5-3-3-3-3-3-3-3-3--i

(x3)

e|-----------------------------------i
d, c, a, d
e|---------------------------------------------------i
b|---------------------------------------------------i
g|---------------------------------------------------i
d|--7-7-7-7-7-7-7-7-5-5-5-5-5-5-5-5---------7-7-7-7--i
a|--5-5-5-5-5-5-5-5-3-3-3-3-3-3-3-3-7-7-7-7-5-5-5-5--i
e|----------------------------------5-5-5-5----------i
riff: verso 2
c,d,c, a
e|-------------------i
b|-------------------i
g|-------------------i
d|--5-7-5------------i
a|--3-5-3-7---x-x-x--i
e|--------5---x-x-x--i
refr�O:
d, c
e|-----------------------------------i
b|-----------------------------------i
g|-----------------------------------i
d|--7-7-7-7-7-7-7-7-5-5-5-5-5-5-5-5--i
a|--5-5-5-5-5-5-5-5-3-3-3-3-3-3-3-3--i
e|-----------------------------------i

(x3)

d, c, a, d
e|---------------------------------------------------i
b|---------------------------------------------------i
g|---------------------------------------------------i
d|--7-7-7-7-7-7-7-7-5-5-5-5-5-5-5-5---------7-7-7-7--i
a|--5-5-5-5-5-5-5-5-3-3-3-3-3-3-3-3-7-7-7-7-5-5-5-5--i
e|----------------------------------5-5-5-5----------i
solo: ( d,c,d,a)
refr�O:
d, c
e|-----------------------------------i
b|-----------------------------------i
g|-----------------------------------i
d|--7-7-7-7-7-7-7-7-5-5-5-5-5-5-5-5--i
a|--5-5-5-5-5-5-5-5-3-3-3-3-3-3-3-3--i
e|-----------------------------------i

(x3)

d, c, a, d
e|---------------------------------------------------i
b|---------------------------------------------------i
g|---------------------------------------------------i
d|--7-7-7-7-7-7-7-7-5-5-5-5-5-5-5-5---------7-7-7-7--i
a|--5-5-5-5-5-5-5-5-3-3-3-3-3-3-3-3-7-7-7-7-5-5-5-5--i
e|----------------------------------5-5-5-5----------i

get free
pm = palm mute
/ = slide
intro and main riff:
e|----------------------------------------------------------|
b|----------------------------------------------------------|
g|-7-7-7-7-7-7-8-5-7-7-7-7-7-7-8-5-7-7-7-7-7-7-8-5--5-5-----|
d|-x-x-x-x-x-x-x-x-x-x-x-x-x-x-x-x-x-x-x-x-x-x-x-x--5-5-5-5-| 2x
a|-5-5-5-5-5-5-6-3-5-5-5-5-5-5-6-3-5-5-5-5-5-5-6-3--3-3-5-5-|
e|------------------------------------------------------3-3-|
verse:
pm_______________________________________________
e|----------------------------------------------------------|
b|----------------------------------------------------------|
g|-7-7-7-7-7-7-7-5-7-7-7-7-7-7-7-5-7-7-7-7-7-7-7-5--5-5-----|
d|-7-7-7-7-7-7-7-5-7-7-7-7-7-7-7-5-7-7-7-7-7-7-7-5--5-5-5-5-| 2x
a|-5-5-5-5-5-5-5-3-5-5-5-5-5-5-5-3-5-5-5-5-5-5-5-3--3-3-5-5-|
e|------------------------------------------------------3-3-|
i'm gonna
i'm gonna
i'm gonna
ride into
she
she
she
why

get
get
get
the

free
free
free
sun

never loved me
never loved me
never loved me
should anyone?

chorus c /
come
come
come
come

d
in,
in,
in,
in,

c /
come
come
come
come

d
in,
in,
in,
in,

c /
come
come
come
come

d
in
in
in
in

-

g
g#
f
i'll take your photo for you
drive you around the corner
you know you're really alone
live out in california

solo: 2x
e|-----------------------------------------------|

b|-3--1-3-1--3--1-3-1--3--1-3-1-4-3-1------------|
g|-2---------2---------2--------------2----------|
d|-0---------0---------0----------------3--------|
a|-----------------------------------------------|
e|-----------------------------------------------|
brigde 1:
pm__________
(d-c d-c d-c c-g)
yeah (yeah)
me (me)
fall (fall)
when i've a lot to learn
save (save)
me (me)
from (from)
chorus:
c /
come
come
come
come

d
in,
in,
in,
in,

c /
come
come
come
come

d
in,
in,
in,
in,

c /
come
come
come
come

d
in
in
in
in

-

g
g
g
g

g#
g#
g#
g#

f (uuuaaahhh)
f
f
a

interlude - part 1
part 2
e|----------------------------------|----------------------|
b|----------------------------------|----------------------|
g|-77-1010-1212-1313--44-77-99-1010-|-77-1010-1212-1313----|
d|-77-1010-1212-1313--44-77-99-1010-|-77-1010-1212-1313----|
a|-55--8-8-1010-1111--22-55-77--8-8-|-55--8-8-1010-1111----|
e|----------------------------------|----------------------|
when it's raining time
look into your mind a way
repeat verse e chorus

homesick
f

c

g

i left my home/ i left my home, yeah yeah.
f
c
g
where i should go/ where i should go, yeah yeah
f
c
nothing's gonna save you/nothings' gonna save you out there
f
c
g
went on my own/went on my own, yeah yeah
f
c
g
without a phone/without a phone yeah yeah
f
c
nothings gonna save you/nothings gonna save you out there
f
c
nothings gonna save you/nothings gonna save you or give
c
f
i can see the leaves of golden glisten in the sun
am
c
making time for everyone is what i shouldve done
am
c
blue and green with eyes between are acting all the same
am
c
you and me are never free until we're cast away
f
c
but it really doesnt matter
f
c
couldnt change it if i tried
f
c
though it really doesnt matter
f
g
ill do it till i get it right

g
g
g

ride
intro/verse (clean)
c#5
e5 f#5
e|------------------------------------b|------------------------------------g|---6-6-x-x-6-6-x-x-6-6--\9-9\11-11--d|---6-6-x-x-6-6-x-x-6-6--\9-9\11-11---

g

g
g

a|---4-4-x-x-4-4-x-x-4-4--\7-7\\9--9--e|------------------------------------chorus (distortion)
c#5 a5
c#5 a5
c#5 a5
e5
f#5
e|----------------------------------------------------b|----------------------------------------------------g|---6-6-2-2-2-2-6-6-2-2-2-2-6-6-2-2-2-2--------------d|---6-6-2-2-2-2-6-6-2-2-2-2-6-6-2-2-2-2-2-2-2-4-4-4--a|---4-4-0-0-0-0-4-4-0-0-0-0-4-4-0-0-0-0-2-2-2-4-4-4--e|---------------------------------------0-0-0-2-2-2--post chorus (distortion ? slight phase)
c#5
e5 f#5
e|----------------------------------b|----------------------------------g|---6-6-x-x-6-6-x-x-6-6------------d|---6-6-x-x-6-6-x-x-6-6---2---4-4--a|---4-4-x-x-4-4-x-x-4-4---2---4-4--e|-------------------------0---2-2--then repeat verse and chorus.
bridge (clean)
guitar 1
a5
g5
f#5
e|----------------------------------------------------b|----------------------------------------------------g|----------------------------------------------------d|---7-7-7-7-7-7-5-5-5-5-5-5-4-4-4-4-4-4-4-4-4-4-4-4--a|---7-7-7-7-7-7-5-5-5-5-5-5-4-4-4-4-4-4-4-4-4-4-4-4--e|---5-5-5-5-5-5-3-3-3-3-3-3-2-2-2-2-2-2-2-2-2-2-2-2--second time round palm mute f#5 open open it out towards the beginning of solo.
guitar 2
a5
g5
f#5
e|----------------------------------------------------b|----------------------------------------------------g|-------7-5---------5-3---------4-2---------4-2------- (not 100% on )
d|-----------7-5---------5-3---------4-2---------4-2--- (this bit,
)
a|----------------------------------------------------- (please help )
e|---5-5---------3-3---------2-2---------2-2----------solo (distortion)
e|--------------------------------------------------b|--------------------------------------------------g|---6b-6b-6b-6b-6b-6b-6b-6b-9b-9b-9b-9b-9b-9b-9b-9bd|--------------------------------------------------a|--------------------------------------------------e|--------------------------------------------------e|-----------------------------------------------------------------------b|-----------------------------------------------------------------------g|---12b-12b-12b-12b-12b-12b-12b-12b---0\\\\\\\\\\\\\\\\\\\\\\\20-20-20--d|------------------------------------------------------------------------

a|-----------------------------------------------------------------------e|-----------------------------------------------------------------------play intro/verse clean and then guitar 2 vision valley
composi��o: craig nicholls
intro e g d a
e
g
d
a
are you here forever standin' by the road
e
g
d
a
with the benefit of feelin' on your own
e
g
d
a
where the river ends the sun is comin' down
e
g
d
a
through the vision valley waitin' to be found.
essa � a sequ�ncia da m�sica inteira. :)
mais tarde trarei o soloplays this?
e|-------------------------------b|-------------------------------g|---12-(sustain then feedback)--d|-------------------------------a|-------------------------------e|-------------------------------repeat chorus
and end on.
c#5
e|--------b|--------g|---6-6--d|---6-6--a|---4-4--e|---------

winning days

f
c
the winning days are gone
g
am
because i know just what i'm seeing
f
c
g
was given eyes i know, i can hear.
f
c
'cause underneath there's gold
g
am
i need to get around to find it
f
c
g
and when i want to go, i can dream.
f
i've been tryin'
c
am
all my time, i'm just seeing it rise
e
'cause it could be the land that's over me
f
g
so i just wanna let it breathe.
solo
-------------------------------------------------------|
-------------------------------------------------------|
--9-7-5--5^-4-5--7-5-4--4^-2-4--7-5-4-4^-2-4-----------|
---------------------------------------------9^-7-5-7--|
-------------------------------------------------------|
-------------------------------------------------------|
--------------------------------------------------------|
--------------------------------------------------------|
--9-7-5--5^-4-5--7-5-4--4^-2-4--7-5-5--4^-5-4-5-2-0-----|
--------------------------------------------------------|
--------------------------------------------------------|
--------------------------------------------------------|
----------------------------------------------------|
----------------------------------------------------|
---7-5-7-5-7-5-7-5---------7-5-7-5-7-5-7-5----------|
----------------------------------------------------|
----------------------------------------------------|
-----------------------8\------------------8--7\----|
----------------------------------------------------|
----------------------------------------------------|
--9-7-5--5^-4-5--7-5-4--4^-2-4--7-5-5--4-5-4-5-0----|
----------------------------------------------------|
----------------------------------------------------|
----------------------------------------------------|

(x2)

f
i've been tryin'
c
am
all my time, i'm just seeing it rise
e
'cause it could be the land that's over me
f
g
f
so i just wanna let it breathe for now.
c
g
am
f
get up and go outside it can help your mind to
c
g
get up don't hide away.
f
c
'cause i know where they go,
g
am
i've seen you down when i was flying
f
c
g
i'm sinking like a stone i can't breathe
f
c
i've been trying.

take me back
composi��o: craig
intro: a,e,f#,e
a
there's no point in doin' what i've done
f#
f#
lives are goddamned ruined like the runts
f#
like the runts
a
e
take me back to the weather
f#
e
bend the tracks wish forever
a
e f#
e
take me back for i go down there no more
a

chew us up and spit us out again
f#
wavin' bye and getting high on trends
a
e
take me back to the weather
f#
e
bend the tracks wish forever
a
e f#
take me back for i go down there no more
e
well the road is long
d
a
but i know i can survive
e
been away so long
d
b
anyway i saw what i could find
solo: (a,f#)
a
e
take me back to the weather
f#
e
bend the tracks wish forever
a
e f#
e
take me back for i go down there no more
a

main offender
intro
e|------------------------------------------|
b|------------------------------------------|
g|---7---7-7-7---7-7-7---7-7-7--------------|
d|---7---7-7-7---7-7-7---7-7-7--------------|
a|---5---5-5-5---5-5-5---5-5-5--------------|
e|------------------------------------------|
verso: 2 riffs alternados
i'm on my way...
e|------------------------------------------|

b|------------------------------------------|
g|----------------10--12------------9--10---|
d|--9-10-11-12----10--12----7--6----9--10---|
a|--9-10-11-12-----8--10----7--6----7---8---|
e|--7--8--9-10--------------5--6------------|
can't settle down...
e|----------------------------------------------|
b|----------------------------------------------|
g|----------------10--12----------10---------7--|
d|--9-10-11-12----10--12----7--6--10--9--10--7--|
a|--9-10-11-12-----8--10----7--6---8--9--10--8--|
e|--7--8--9-10--------------5--6------7---8-----|
depois desse ultimo acorde(fa na 8 casa/5 corda) repete a primeira parte sem o
primeiro acorde (si 7 casa/6 corda).
pre-refrao:

la (5 casa/6 corda) repetidamente

refrao
e|----------------------------------------------|
b|----------------------------------------------|
g|-----------7--7--7--10-10-10--12--12--12------|
d|--7--7--7--7--7--7--10-10-10--12--12--12------|
a|--7--7--7--5--5--5---8--8--8--10--10--10------|
e|--5--5--5-------------------------------------|
i'm on my way.
can't settle down.
stuck in ways of being an ass
and i got a lot of nerve that i'm ready to pass.
i'm on my way.
can't settle down.
stuck in ways of sadistic joy
and my talent only goes as far as to annoy. i'm on my way
this is my main offender.
this is what i got and it
got me saying - why me?
i'm on my way.
i get around.
not too sure about what i do.
feel i've got to stop a second just to think it thru.
and so i stop!
i'm on my way.
yeah i get around.
thought it all over and now i spit it out
and when i spit i spit on those that i care less about
i'm on my way.
this is my main offender.
this is what i've got and it
got me saying - why me?

i'm on my way.

walk idiot walk
intro:
|-----------------------------r
|-9-9--7---14-14--12--14-15---e
|-9-9--7---14-14--12--14-14---p
|-9-9--7---14-14--12----------e
|-----------------------------a
|-----------------------------t till verse
verse:
|--0-0-0-0-0-0-0-0-0-0-0--|
|--3-3-3-2-2-2-2-1-1-1-0--|
|-------------------------|
|-------------------------|
|-------------------------|
|-------------------------|
see the idiot walk...
|-----------------------------r
|-9-9--7---14-14--12--14-15---e
|-9-9--7---14-14--12--14-14---p
|-9-9--7---14-14--12----------e
|-----------------------------a
|-----------------------------t
chorus:
this is what i need...
|---------------------------------------------------------------|
|---------------------------------------------------------------|
|---------------------------------------------------------------|
|-5-5-5-5-5-5-5-5--4-4-4-4-4-4-4-4--5-5-5-5-5-5-5-5-------------|
|-5-5-5-5-5-5-5-5--4-4-4-4-4-4-4-4--5-5-5-5-5-5-5-5--4brbrbrbr--|
|-3-3-3-3-3-3-3-3--2-2-2-2-2-2-2-2--3-3-3-3-3-3-3-3-------------|
|-----------------------------r
|-9-9--7---14-14--12--14-15---e
|-9-9--7---14-14--12--14-14---p
|-9-9--7---14-14--12----------e

|-----------------------------a
|-----------------------------t
verse:
|--0-0-0-0-0-0-0-0-0-0-0--|
|--3-3-3-2-2-2-2-1-1-1-0--|
|-------------------------|
|-------------------------|
|-------------------------|
|-------------------------|
|-----------------------------r
|-9-9--7---14-14--12--14-15---e
|-9-9--7---14-14--12--14-14---p
|-9-9--7---14-14--12----------e
|-----------------------------a
|-----------------------------t
chorus:
this is what i need...
|---------------------------------------------------------------|
|---------------------------------------------------------------|
|---------------------------------------------------------------|
|-5-5-5-5-5-5-5-5--4-4-4-4-4-4-4-4--5-5-5-5-5-5-5-5-------------|
|-5-5-5-5-5-5-5-5--4-4-4-4-4-4-4-4--5-5-5-5-5-5-5-5--4brbrbrbr--|
|-3-3-3-3-3-3-3-3--2-2-2-2-2-2-2-2--3-3-3-3-3-3-3-3-------------|
|-----------------------------r
|-9-9--7---14-14--12--14-15---e
|-9-9--7---14-14--12--14-14---p
|-9-9--7---14-14--12----------e
|-----------------------------a
|-----------------------------t
bass!
|-----------------------------r
|-9-9--7---14-14--12--14-15---e
|-9-9--7---14-14--12--14-14---p
|-9-9--7---14-14--12----------e
|-----------------------------a
|-----------------------------t
chorus:
this is what i need...
|---------------------------------------------------------------|
|---------------------------------------------------------------|
|---------------------------------------------------------------|
|-5-5-5-5-5-5-5-5--4-4-4-4-4-4-4-4--5-5-5-5-5-5-5-5-------------|
|-5-5-5-5-5-5-5-5--4-4-4-4-4-4-4-4--5-5-5-5-5-5-5-5--4brbrbrbr--|
|-3-3-3-3-3-3-3-3--2-2-2-2-2-2-2-2--3-3-3-3-3-3-3-3-------------|
|-----------------------------r
|-9-9--7---14-14--12--14-15---e
|-9-9--7---14-14--12--14-14---p
|-9-9--7---14-14--12----------e
|-----------------------------a

|-----------------------------t

-====lyrics
-====well, is it true what they say about it
you wanna do what i do and i doubt it
and then they tell you anything about it
yeah, i know
i got some people say it's this way
i got some people say it's that way
and then some people say there's no way
hell, i know
[chorus:]
see that idiot walk
see that idiot talk
see that idiot shock up his name on the backboard
artist: the hives
song: walk idiot walk
see that robot walk
see that robot talk
see that robot write up his name on the battle
they say this is all i need you to get by
the truth is, baby, it's a lie-ie-ie-ie-ie
well, is it true what they say about it
you gotta do what i do and i doubt it
i announce i wanna do something about it
ain't it fair
i got some people doing it this way
i got some people doing it that way
and then some people
ain't it fair
[chorus]
i got a martulation
and through a miracle of bad equation
you gave up and you started thinking
they were true
if you are beauty and combination
body at work and a mind on vacation
we're on a tray we started thinking
it was you
[chorus]

two-timing touch and broken bones
toque toda a m�sica com power chords.
introdu��o:
e5 g5 a5 c5 (x4) b5
e5 g5 a5 c5
it's official, full judicial
ends in physical, this i know
e5 g5 a5 c5
best keep quiet, you don't listen to me anyway
you're going to lose and it's going to show
it's far too late to avoid it so
b5
oh, what's that sum
d5
e5
it added up to nothing 'cause you're much too dumb
b5 a5-d5

two-timing
two-timing
two-timing
two-timing

touch
touch
touch
touch

and
and
and
and

broken
broken
broken
broken

bones
bones
bones
bones

e5 g5 a5 c5
bad decision, repetition
should you listen or let it go
(pause)
uh!
e5 g5 a5 c5
best say something when you're thinking that you'll get it back
but it's too late to avoid it so
it's far too late and i got to know
b5
oh, what's that sum
d5
e5
it added up to nothing 'cause you're much too dumb
b5 a5-d5

two-timing
two-timing
two-timing
two-timing
two-timing
two-timing

touch
touch
touch
touch
touch
touch

and
and
and
and
and
and

broken
broken
broken
broken
broken
broken

bones
bones
bones
bones
bones
bones

two-timing touch and broken bones
two-timing touch and broken bones
terminar em b5.

(it's good) to be free
intro: em c a am
em
head like a rock spinning round and round
c
i found it in a hole sitting upside down
a
am
em
you point the finger at me
but i don't believe
em
paint me a wish on a velvet sky
c
a
am
you demand the answers but i don't know why in my mind (in my mind)
am
em
there is no time
c
d
em
but the little things they make me so happy
c
d
em
all i want to do is live by the sea
c
d
em
little things they make me so happy
a
am
em
but it's good it's good it's good to be free
em
so what would you say if i said to you
c
it's not in what you say it's in what you do
a
am
em
you point the finger at me
but i don't believe
em
bring it on home to where we found
c
my head like a rock sitting upside down
a
am
em
in my mind (in my mind) there is no time
c
d
em
but the little things they make me so happy

c
all i want to
c
little things
a
but it's good
g
g

d/f#
a

d
em
do is live by the sea
d
em
they make me so happy
am
em
it's good it's good to be free

em

em

no final:
g
a

d/f#
am

em
em

a bell will ring
[ capo na 2� casa ]
e
a little
dsus2
see what
e
a little
dsus2
see what

space, a little time
e
it can do
faith, a piece of mind
e
puts things through

dsus2
asus2
the sun will shine on you again
e
dsus2
a bell will ring inside your head
a
e
and all will be brand new
e
come along, come on in
dsus2
e
here's something that you'll know
e
who wonders why as your restless there ?
dsus2
e
so entertain your goal
dsus2
asus2
the sun will shine on you again

e
dsus2
a bell will ring inside your head
a
e
and all will be brand new
a
e
all will be brand new
e
i can tell you what you want to hear
dsus2
e
i've been here once before
e
you put me through my empty night
dsus
e
sleepless on your floor
dsus2
asus2
the sun will shine on you again
e
dsus2
a bell will ring inside your head
a
and all will be brand new
a
e
all will be brand new
a
e
/ a*
all will be brand new

e

a bell will ring
[ capo na 2� casa ]
e
a little
dsus2
see what
e
a little
dsus2
see what

space, a little time
e
it can do
faith, a piece of mind
e
puts things through

e

3x

<-

*2

dsus2
asus2
the sun will shine on you again
e
dsus2
a bell will ring inside your head
a
e
and all will be brand new
e
come along, come on in
dsus2
e
here's something that you'll know
e
who wonders why as your restless there ?
dsus2
e
so entertain your goal
dsus2
asus2
the sun will shine on you again
e
dsus2
a bell will ring inside your head
a
e
and all will be brand new
a
e
all will be brand new
e
i can tell you what you want to hear
dsus2
e
i've been here once before
e
you put me through my empty night
dsus
e
sleepless on your floor
dsus2
asus2
the sun will shine on you again
e
dsus2
a bell will ring inside your head
a
and all will be brand new
a
e
all will be brand new
a
e
/ a*
all will be brand new

carry us all

e

e

3x

<-

*2

autor: noel gallagher
acordes
------dm
(xx0231)
g
(320033)
fmaj7 (x33210)
c
(x32010)
c/b
(x20010)
am
(x02210)
d
(xx0232)
bb
(x8876x)
intro
----dm
g
e------5-----0------3-3--b--------------6----3-3--g---7-----7------7--0-0--d-7---7-------------0-0--a-------------------2-2--- (2x)
e-------------------3-3--verso 1
------dm
g
dm
i heard a whisper on my radio but i paid no mind
g
i just sat back and i let it go
dm
g
to catch the rain from a lonely waterfall
dm
but i might beware
g
because they could drown me like a dog
ponte
-----

fmaj7
g
they got me running in & out of time
c
c/b
am
i feel like i'm bonified
fmaj7
g
a keeper of right and wrong
d
f
and i've known all along
g
so let me just make clear
refr�o 1
-------c
c/b
am
everybody's going for a quick sure fire solution
bb
fmaj7
g
am
f
g
but faith in any god will only bury us all

c
c/b
am
nobody's gonna fight in a ten bob revolution
bb
fmaj7
g
am
have faith in what you got and it will carry us all
g (one strum)
carry us all
dm

g

dm

g

verso 2
------dm
g
i slipped my skin as the prophets reappeared
dm
but i pay no mind
g
i'm just trying to perservere
dm
g
with the sins i have to shake from me within
dm
but i might beware
g
cos they're just trying to wear me thin
ponte
-----

fmaj7
g
they got me running in & out of time
c
c/b am
i feel like i'm bona fide
fmaj7
g
a keeper of right and wrong
d
fmaj7
and i've known all along
g
but let me just make clear
refr�o 2
-------c
c/b
am
everybody's going for a quick sure fire solution
bb
fmaj7
g
am
f g
but faith in any god will only bury us all
c
c/b
am
no-ones gonna fight in your ten bob revolution
bb
fmaj7
g
am
have faith in what you got it's gonna carry us all
dm
g
dm
g
dm
g
carry us all
d

fmaj7

refr�o 3
-------c

g

g

c/b

am

everybody's going for a quick sure fire solution
bb
fmaj7
g
am
f g
but faith in any god will only bury us all
c
c/b
am
no-ones gonna fight in your ten bob revolution
bb
fmaj7
g
am
have faith in what you got it's gonna carry us all
dm

g

dm

g

dm

g

g

c

(i've pulled my fuckin' groin)

gas panic
autor: noel gallagher
(bra�adeira (capo) na 3.casa)
acordes
------bb5/db bb5/ab bb5/c

g5 cadd9

d

fmaj7

bb

e---3------3-----3-----3----3-----2----0------x--b---3------3-----3-----3----3-----3----1------3--g---0------0-----0-----0----0-----2----2------3--d---0------0-----0-----0----2-----0----3------3--a---1------x-----0-----x----3-----x----3------1--e---x------1-----x-----3----x----------x------x--intro
----bb5/db

bb5/ab

bb5/c

g5

bb5/c

bb5/db

bb5/ab

bb5/c

verso 1
------bb5/db
bb5/ab
bb5/c g5
what toungue less ghost of sin crept through my curtains
bb5/db
bb5/ab
bb5/c
g5
bb5/c
sailing on a sea of sweat on a stormy night
bb5/db
bb5/ab
bb5/c
g5
i think he don't got a name but i can't be certain
bb5/db
bb5/ab
bb5/c g
bb5/c

g5

bb5/c

bb5/c

and in me he starts to confide
refrao 1
-------bb5/db
bb5/ab bb5/c g5
that my family don't seem so familiar
bb5/db bb5/ab
bb5/c g5
and my enemies all know my name
bb5/c bb5/db
bb5/ab bb5/c g5
and if you hear me tap on your window
cadd9
you better get on your knees and pray
d
panic is on the way
bb5/db

bb5/ab

bb5/c

g5

bb5/c

bb5/c (x2)

verso 2
------bb
fmaj7
g5
my pulse pumps out the beat to the soul less dancer
bb
fmaj7
g5
my eyes are dead and my thoughts like a big black hole
bb
fmaj7
g5
and if there's a god above who'd would he give another chancer
bb
fmaj7
g5
an hour to sing for his soul
refr�o 2
-------bb
fmaj7
g5
'coz my family don't seem so familiar
bb
fmaj7
g5
and my enemies all know my name
bb
fmaj7
g5
and if you hear me tap on your window
cadd9
you better get on your knees and pray
d
panic is on the way
bb

fmaj7

g (x2)

guit. break
----------g5 / g5 / fmaj7 / cadd9 / g5 / g5 / fmaj7 / cadd9 / bb / cadd9 / cadd9
(solo - gaita, acordes do refr�o)
refr�o 3
-------bb
fmaj7
g5
'coz my family don't seem so familiar
bb
fmaj7
g5
and my enemies all know my name

bb
fmaj7
g5
and if you hear me tap on your window
bb
fmaj7
g5
then you get on your knees and you better pray
refr�o 4
-------bb
fmaj7
g5
'coz my family don't seem so familiar
bb
fmaj7
g5
and my enemies all know my name
bb
fmaj7
g5
and if you hear me tap on your window
cadd9
you better get on your knees and pray
d
panic is on the way
bb

fmaj7

g5 at� o final

go let it out
autor: noel gallagher
intro
----a7
verso 1
------a7
make no illusion try to click with what you got
a7
taste every potion to see if you like yourself a lot
refr�o
-----d
go let it out
fmaj7
go let it in
a7
go let it out

g

(pick up the bass!)
verso 2
------a7
life is precocious in the most peculiar way
a7
sister psychosis don't got a lot to say
refr�o
-----d
she go let it out
fmaj7
she go let it in
a7
she go let it out

g

(repete)
ponte
----d

fmaj7
a7
cadd9
is there any wonder why princes and kings?
d
fmaj7
a7
cadd9
and clowns that caper in their sawdust rings?
d
fmaj7
a7
cadd9
ordinary people that are like you and me
g
d
we're the builders of their destiny
g
d
we're the keepers of their destiny
a7
verso 3
-------

a7
i'm gonna leave in the city i'm gonna drive him out of town
a7
and you're coming with me the right time is always now
refr�o
-----d
so go let it out
fmaj7
an' go let it in
a7
an' go let it out

g

(repete)
(repetir ponte, ps.: g d 4x)
link

--2---2----3---3----4---4-----3---3-----3--------3--------3---------3---------------------------------------0-------0--------0---------0--------------------------------------------------------------------------------(x3 at�;)
(guit. 1)
--2---2----3---3----4---4-----4---4-----4---4-----4---4-------3--------3--------3---------3---------3---------3---------------------------------------------------------------0-------0--------0---------0---------0---------0------------------------------------------------------------------------------------------------------------------------------(guit. 2)
(feedback)
d|-------------------------------------12~~~~12~~~~12~~~~12~~~~
refr�o 2
-------d
go let it out
cadd9 g
go let it in
d
go let it out
cadd9
g
don't let it in
d
go let it out
cadd9 g
go let it in
d
go let it out
cadd9
g
don't let it in don't let it in don't let it in
solo
----

bu bd
bu bd
e|----------------------------------------------b|--7--8--10---8-7------------------------------g|------------------11-(12)-11-9--9-(11)-9--7--7(x3, at�:)
bu bd
s
e|-----------------------------------8/10-10-10-10-10-10-10-10--b|--7--8--10---8-7----------------------------------------------g|------------------11-(12)-11-9--9------------------------------

final
-------4---4-------2---2---------3---3-------3---3--------------------------0-----------0------------------------------------------------------------

---> (n vezes)

(guit. 2: solo)
---------------------------------------------------------------------------------------------------------------------------------13-(15)-13-10--------------------------10----10---------10----10--------10----10------------------12--12-(14)-12-10--/12----12----12--/12----12----12-/12----12---------------------------------------12
--------------------------------------------------------------------------------------------------------------------------------------------------------------------(repetir ate final)
acordes
------a7
(x02020)
d
(xx0232)
fmaj7 (x33210)
g
(320033)
cadd9 (x32030)

listen up
[note: during the verses of this song, there are 2 guitars playing 2
completely different parts. below are the tabbed parts for guitar 2, with
the chords played by guitar 1 listed above the tabbed part.]
intro
-----

f#m
a
e
d
a
e-----------0--------!-----------------------------0-------------------------

b|---------0---0------!--------0--------0-------0-----3----------0-----0-----g|-------2-------2----!------2--------2-----------------2----------2-----2---d|-----4-----------4--!----4--------2-------------0-------0----2-----2-----2-a|---4----------------!--4--------0-------------------------0----------------e|--------------------!-----------------------0------------------------------f#m
a
e
d
a
e-----------------------------------2-0--------------------------------b|--0------------0-------0-------0-------3-2------0-----0-----0---------g|----2--------2-------2---------------------2------2-----2-----2-------d|------2----4-------2-------------0------------2-----2-----2-----2-----a|---------4-------0-------------------------0--------------------------e|-----------------------------0----------------------------------------[note: the intro minus the part before the exclamation points above is
what guitars 1 & 2 play during all the verses of the song. listed below
over the lyrics will be only the chords played by guitar 1, but the part
played by guitar 2 is also being played in the song.]
[another note: after guitar 1 has played each chord progression above
(f#m a e d a), this is how the second "a" in the chord progression is
played by guitar 1:]
a
e-------------------------------------b|--2---3-3-2-3-2---3-3-3-3-2----------g|--2---2-2-2-2-2---2-2-2-2-2----------d|--2---2-2-2-2-2---2-2-2-2-2----------a|--0---0-0-0-0-0---0-0-0-0-0----------e|-------------------------------------while guitar 2 is playing:
asus2
e-------------------------------------b|--------0-----0-----0----------------g|----------2-----2-----2--------------d|------2-----2-----2-----2------------a|--0----------------------------------e|-------------------------------------verse 1
-------

f#m
a
e
d
a
listen up, what's the time, said today i'm gonna speak my mind
f#m
a
e
d
a
take me up to the top of the world i wanna see my crime
f#m
a
e
d
a
day by day there's a man in a suit, he's gonna make you pay
f#m
a
e
d
a
for the thoughts that you think and the words they won't let you say
pre-chorus
---------f#m
faug
a/e
b7
one fine day, gonna leave you all behind
bm7
d
e
it wouldn't be so bad if i had time
chorus
------

d
a/c#
e
sailing down the river alone
d
a/c#
f#m
i've been tryin' to find my way back home
d
a/c#
but i don't believe in magic
d
a/c#
life is automatic
b7
d
a
(pick "a" like guitar 2 in verse)
but i don't don't mind being on my own
b7
d
a
a
no i don't mind being on my own
tab for high pitched guitar in background of chorus:
you'l hear this little riff repeating again and again in the chorus
background with some sort of weird guitar effect used on it:
e--12-------------------12---------------------b|-----14-12-14-12----------14-12-14-12---------g|-----------------14-11----------------14-11---[repeat verse 1]
[pre-chorus]
[chorus]
guitar solo (played along with verse chords):
tab key:
b=bend (14b15 means bend the string at the 14th fret to make the note
that would be heard if you played the string at the 15th fret without
bending]
r=release
s=slide
h=hammer on
p=pull off
f#m
a
e
d
a
e-----------------------------------------------------b|-----------------12--14--12--14--14b15--14b15r14--10-g|---11--11--11--9-------------------------------------- (repeat 4 times)
d|-----------------------------------------------------solo continued (now using chords for pre-chorus):
f#m
faug
e----------------------------------------------------------------------b|--12--10--12--12b13r12--10h12p10------10--12--12b13r12--10h12p10------g|----------------------------------11------------------------------11--d|----------------------------------------------------------------------a/e
b7
e------------------------------------------------------------------b|--10--12--12b13r12--10h12p10------10--12--12b13--12b13--12--10----g|------------------------------11----------------------------------d|------------------------------------------------------------------bm7
d
e------------------------------------------------------------------b|--12--12b13r12--10h12p10------10--12--12b13r12--10h12p10------10---

g|--------------------------11------------------------------11------d|------------------------------------------------------------------e
e-------------------------------------b|------10-----------------10------10--g-s11------9b11--9----11------11------d|-------------------------------------[chorus]
song ends with a repeated asus2 chord.

rockin' chair
tom: c
intro: c

c/b

am

(4 x)

c
c/b
am
f
i'm older than i'd wish to be, this town holds no more for me
f
c g
d/f#
f
all my life, i've tried to find another way
c
c/b
am
f
i don't care for your attitude, you bring me down i think you're rude
f
c g
d/f#
f
all my life, i've tried to make a better day

em
am
it's hard enough being alone
em
am
sitting here by the phone
f
waiting for my memories
e
e7
to come and play
em
am
it's hard enough sitting there
em
am
rockin' in your rockin' chair
f
it's all too much for me to take
e
e7
when you're not there
solo

----------tab key:
h = hammer on
s = slide
c
c/b
am
f
c
g
d/f#
e|------------------------------------------------------------------------b|------------8----8------------------------------------------------3--3s5g|------------7h9--7h9--7--5--7--5-----------------2--5--7--5--7----------d|----------------------------------------0--2--3-------------------------a|------------------------------------------------------------------------e|------------------------------------------------------------------------f
c
c/b
am
e|---------------------s5-5-5-3-------s5-5-5-3--------s5-5-5-----------------b|-3--1--3--1--3--1-------------5-3------------5-3-----------5-3-------------g|----------------------------------5--------------5-------------5--5--5s7--9d|---------------------------------------------------------------------------a|---------------------------------------------------------------------------e|---------------------------------------------------------------------------f
c
g
d/f#
f
e|---------------------------------------------------------------------b|---------------------------------------------------------------------g|-7--5--7--5----7--5-----5---7--5--7--------5-----5-----5-----5-----5-d|---------------------7-----------------5h7---5h7---5h7---5h7---5h7---a|---------------------------------------------------------------------e|---------------------------------------------------------------------chords:
c:
c/b:
am:
f:
g:
d/f#:
em:
e:
e7:

eadgbe
(x32010)
(x20010)
(x02210)
(x33210)
(320033)
(200230)
(022000)
(022100)
(020100)

sad song
ela � tocada com um viol�o de 12 cordas (menos o solo), mas fica legal num viol�o
comum e
melhor ainda com dois viol�es.

introdu��o: varie entre os acordes am7 e c.
am7
c
sing a sad song in lonely place
asus2
e
g
and try to put a word in for me
am7
c
it's been so long since found a space
asus2
e
g
you'd better put in two or three
am7
c
we as people are just walking around
asus2
e
our heads are firmly fixed in the ground
am7
c
what we don't see, well it can't be real
asus2
e
g
what we don't touch we cannot feel

g

-------------------------refr�O-----------------------------------------c
g
where we're livin' in this town
am
f
the sun is coming up and it's going down
c
g
d
dsus2 d dsus4 d dsus2 d
but it's all just the same at the end of the day
c
g
and we cheat and we lie
am
f
nobody says it's wrong so we don't ask why
c
g
d
dsus2 d dsus4 d dsus2 d
'cos it's all just the same at the end of the day
fmaj7 c
are we throwing it all away
fmaj7 c
we're throwing it all away
fmaj7 c
e
we're throwing it all away at the end of the day
-------------------------------------------------------------------------am7
c
if you need it something i can give
asus2
e
g
i know i'd help you if i can
am7
c
if you're honest and you say what you did
asus2
e
g
you know that i would give you my hand
am7
c
or a sad song in a lonely place
asus2
e
g
i'll try and put a word in for you
am7
c
you need a shoulder? well if that's the case
asus2
e
g
you know there's nothing i wouldn't do

------------------------------refr�O-------------------------------------c
g
where we're livin' in this town
am
f
the sun is coming up and it's going down
c
g
d
dsus2 d dsus4 d dsus2 d
but it's all just the same at the end of the day
c
g
and we cheat and we lie
am
g
nobody says it's wrong so we don't ask why
c
g
d
dsus2 d dsus4 d dsus2 d
'cos it's all just the same at the end of the day
fmaj7
don't throw it all
fmaj7
don't throw it all
fmaj7
don't throw it all
fmaj7
don't throw it all

c
away
c
away
c
away
c
away

-------------------------------------------------------------------------solo (viol�o 2):
|----------------------------------------------------------------------------------------|-----------------------------------------------8----------------------------------------|----------5-7-5-7/9-7-5/7-5vvv----------5-7-7/9---5/7-5vvv----------5-7-5-7/9-75/7-5vvv-|------5-7---------------------------5-7-------------------------57----------------------|--5-7---------------------------5-7-------------------------57--------------------------|----------------------------------------------------------------------------------------|--------------------|-------7---7-----7---7-----7---7---|----------------8---|8vvv-----8---8-----8---8-----8---8--.....
|----------5-7-9---7-|-----------------------------------|------5-7-----------|-----------------------------------|--5-7---------------|-----------------------------------|--------------------|-----------------------------------don't throw...
fmaj7
...it all

c
away
fmaj7
don't throw it all
fmaj7
don't throw it all
fmaj7
don't throw it all

c
away
c
away
c
away...

e
at the end of the day

she�s electric
(gallagher)
chords used:
eadgbe
e
(022100)
e2
(079997)
g#
(466544)
c
(x35553)
c#m
(x46654)
a
(x02220)
a2
(577655)
amaj7 (x02120)
d
(x57775)
b
(x24442)
f#m7add4 (xx4200)
intro
----starts with:
h=hammer on
e------2-----2-----2-----b--3-----3-----3-----3---g--2h4---2h4---2h4---2h4-d-------------------------

a bunch of times

until:
e

g#

c#m

a2

e

g#

c#m

a2

e

g#

c#m

a2

c

d

e

[note: during all of the verses in this song, whenever guitar 1 plays an
"a2", there is a second guitar that plays this little fill:
h=hammer on
d------2------a--2h4---4-2--e--------------

and whenever, at the end of the verses, when guitar 1 plays an "e", guitar
2 plays an "e2".
verse 1
------e g#
c#m a2
she's electric
e
g#
c#m
a2
she's in a family full of ecentrics
e
g#
c#m
a2
she's done things i've never expected
c
d
e
and i need more time
verse 2
------she's got a sister
and god only knows how i've missed her
and on the palm of her hand is a blister
and i need more time
pre-chorus
---------a
amaj7
a
amaj7
and i want you to know, i've got my mind made up now
a
c#m
e
e7
but i need more time
a
amaj7
a
amaj7
and i want you to say, do you know what i'm saying
a
c#m
but i need more....
chorus
------

e
cause i'll be you and you'll be me
e7
there's lots and lots for us to see
f#m7
there's lots and lots for us to do
b
she is electric, can i be electric too?
solo
---()- ghost note, toque r�pido e levemente
(e g# c#m a2 (3x)) c d e
g---12---12---10---9-------g---9-------------------12---10--b-------10---11---12--------------

g---(10)------13---13---13---13---13-----12---11---10
g-------------------------(8)-------------------b---7---7---6---8-------------9---8---9
verse 3
------she's got a brother
we don't get on with one another
but i quite fancy her mother
and i think that she likes me
verse 4
------she's got a cousin
in fact she's got 'bout a dozen
she's got one in the oven
but it's nothing to do with me
pre-chorus
---------and i want
but i need
and i want
but i need

you to know i've got my mind made up now
more time
you to say, do you know what i'm saying
more

chorus
-----cause i'll be you and you'll be me
there lots and lots for us to see
there's lots and lots for us to do
b
c d
e
she is electric can i be electric, too
c
d
e
c
d
e
too
can i be electric too
song keeps going: c

d

e and ends with a slower

shout it out loud
written by noel gallagher
em d
i hope
i hope
i hope

can i be electric

c d c
we have found our sweet release
i fill that hole in you soul
that at last we get some peace

c

d

e

i hope the light shines on we as one
d c9
there'll never be enough to learn
the river's deep and the road is long
and every which way we turn
always seems insane
but it makes me feel alive
am

c
g d
shout it out loud
when i'm alive
i shout it out loud
when i'm alive
i shout it out loud
when i'm alive
i shout it out loud

em d c d c
as we wish the world away
d'you think it's all a dream
cos that's what it seems
every night we hope and pray
that we can do enough
to keep our love
repete o refr�o

slide away
live from le cabaret sauvage in paris (28/11/2006)
capo on 4th fret
cadd9 - x32030
d2 - 000230
a7sus4 - x02233
em7
slide away
em7
my today em7
i dream of

d
cadd9
- and give it all you've got
d
cadd9
fell in from the top
d
cadd9
you - and all the things you say

em7
d
i wonder where you are now

cadd9

hold me down � cause all the world's asleep
i need you now - you've got me off my knees
i dream of you - we talk of growing old
but you said please don't!
d2
cadd9
d2
cadd9
slide in, baby - together we'll fly
d2
cadd9
d
i've tried praying - and i know just what you're saying to me
g
now that you're mine,
d
we'll find a way
cadd9
of chasing the sun
em7
so let me be the one
d
that shines with you
a7sus4
cause in the morning we don't know
g
we�re two of a kind
d
we'll find a way
cadd9
to do what we've done
em7
let me be the one that shines with
cadd9
a7sus4
and we can slide away
slide
d
b7
awayyyyyyyyyyyyyyy
solo
em7 d cadd9 x2

what to do

cadd9

d
you
cadd9
away

a7sus4
cadd9
slide away

em7
d
cadd9
slide away - and give it all you've got
em7
d
cadd9
my today - fell in from the top
em7
d
cadd9
i dream of you - and all the things you say
em7
d cadd9
i wonder where you are now
d2
cadd9
d2
cadd9
so slide in, baby - together we'll fly
d2
cadd9
d
i've tried praying - but i don�t know what you're saying to me
g
now that you're mine,

a7sus4

d
we'll find a way
cadd9
of chasing the sun
em7
so let me be the one
d
that shines with you
a7sus4
cause in the morning i don't know what to do
g
we�re two of a kind
d
we'll find a way
cadd9
to do what we've done
em7
d
let me be the one that shines with you
cadd9
a7sus4
and we can slide away
cadd9
a7sus4
slide away
cadd9
a7sus4
slide away
cadd9
a7sus4
slide away
cadd9
a7sus4
i don't know, i don't care
all i know is you can take me there
i don't know, i don't care
all i know is you can take me there
i don't know, i don't care
all i know is you can take me there
i don't know, i don't care
all i know is you can take me there
take me there, take me there
take me there, take me there
take me there, take me there
all i know is you take me there
take me there, take me there
take me there, take me there
take me there, take me theeeeeerrrrre
cadd9

a7sus4 x2

cadd9
slide away, ooh
a7sus4
slide away, ooh (repete at� o fim)

cadd9

some might say
written by noel gallagher, performed by oasis
song can be found on the album "(what's the story) morning glory?" and was
also released as a single in the uk and japan. (the japanese single
includes a demo version of the song.)
parts of this transcription were based upon the (crappy)
transcription found in the "official" guitar book for the album (wts)mg? .
chords used:
d
bsus2
g
g2
a
asus4
c
cadd9
em
f#m
f

eadgbe
(xx0232)
(x24422)
(3x0033)
(355433)
(x02220)
(x02230)
(x35553)
(x32030)
(022000)
(244222)
(133211)

tab for intro:
b = bend (8b9 means bend the string at the 8th fret to make the note the
string would make if played at the 9th fret with no bend, i.e. a 1/2 bend)
r = release bend
h = hammer on
p = pull off
s = slide
d
bsus2
g2
d
a
e-----------------------------------------------------2-0-2---0-0-0-0-0-0-0-0b------------------------------2---2---2-------3------------3-2-3-2-3-2-2-3-2g--------------------------2s4--4---4---4--------4----2-------2-2-2-2-2-2-2-2d-7---9---7--9-7---9--7-9--2s4---4---4---4-4s5-----5--0-------2-2-2-2-2-2-2-2a-5-5-5-5-5--5-5-5-5--5-5--0h2-------------4s5----------------0-0-0-0-0-0-0-0e----------------------------------------------------------------------------intro guitar solo
----------------d
bsus2
e-----------------------------------------------------------------------b-----------------------------------------------------------------------g---9b11--9--7--9--7---9b11-9b11--9--7--7----------7--9--9b11r9--7--9--7d------------------------------------------7--7h9-----------------------a-----------------------------------------------------------------------e------------------------------------------------------------------------

g
d
a
e-------------------------------------------------------------b--8--7--8--7--8s10--8--7--8--7--8s10--10--10--12--10--12--10-g--------------9s11--9--7--9--7--9s11--11--11-----------------d-------------------------------------------------------------a-------------------------------------------------------------e-------------------------------------------------------------verse 1
------[note: when playing all "a" chords in the verses, play it sort of like the
"a" in the intro, throwing in some asus4 s (x02230). ]
d
bsus2
some might say that sunshine follows thunder
g
d
a
go and tell it to the man who cannot shine
d
bsus2
some might say that we should never ponder
g
d
a
on our thoughts today cos they will sway over time
pre-chorus
---------em
g
d
some might say we will find a brighter day
em
cadd9
g
some might say we will find a brighter day yeah
chorus
------

d
g
em
g
d g em g
cos i've been standing at the station, in need of education in the rain
d
g
em
g
d
g
em
g
you made no preparation, for my reputation once again
d
g
em
g
d
g
em g
the sink is full of fishes, she's got dirty dishes on the brain
d
g
em
g
d
g
em
g
overflowing gently, but it's all elementary my friend
musical interlude
----------------f#m
f
c
a
e--------------------------------------------------------------10--12-b-5s7--5--3--5-5b6r5--3--3------3--5b6r5---3--5--3--5--10--12---------g----------------------------4----------------------------------------d---------------------------------------------------------------------a---------------------------------------------------------------------e---------------------------------------------------------------------d
bsus2
e-------------------------------------------------------------------------b------------------------------------------8--7--8--7--8--7--8s10-10--8--7g-----7----7---7--9--9b11r9--7--7h9--7-----9--7--9--7--9--7--9s11-11--9--7d-7h9----9---9------------------------------------------------------------a--------------------------------------------------------------------------

e-------------------------------------------------------------------------g
d
a
e-------------------------------------------------------------------------b-8--7--8--7--8--8s10--10--8--7--8--7--8--8s10--10--8--7--8--7--8--7--7--8g-9--7--9--7--9--9s11--11--9--7--9--7--9--9s11--11--9--7--9--7--9--7--7--9d-------------------------------------------------------------------------a-------------------------------------------------------------------------e-------------------------------------------------------------------------e-------------------------------b-7--7--8--7--10--10--10--8--7--g-7--7--9--7--11--11--11--9--7--d-------------------------------a-------------------------------e-------------------------------verse 2
------some might say they don't believe in heaven
g----------7--9--9b10r9--7--7h9--7--9--7-d-----7--9-------------------------------go and tell it to the man who lives in
hell
g------7---7-----7--9b10--b10--b10--b10--b10r9--7h9--7--d--7h9--------9-----------------------------------------some might say you get what you've been
given
e----------------------------------7----------------------b---------------------------------------------------------g-9--9b10r9--7----------7--9--9b11---b10r9--7--9--7--9--7-d---------------9--7--9-----------------------------------if you don't get yours i won't get mine as
well
b-------------------------------------------------------------------g------7--9b10--b10--b10--b10--b10--b10--b10--b10--b10r9--7h9--7----d-7h9---------------------------------------------------------------some might say we will find a brighter
day
e---------------------------7--------------b------------------------------------------g--9b11--9--7-----7--9b10.5----9--7--9--7--d--------------9---------------------------some might say we will find a brighter day

yeah

cos i've been standing at the station in need of education in the rain
made no preparation for my reputation once again
the sink is full of fishes she's got dirty dishes on the brain
and my dog's been itchin', itchin' in the kitchen once again
some might say (some might say)
you know what some might say

end solo
-------d
g
em
g
d
e--------------------------------------b--------------------------------------g--------------------------------------d----s4--2--0----------0-----0--2s4--0-a----------------0--2-----2------------e---------------------------------------

x3

[note: what follows is just variations of the above riff, including the
variation below:]
fourth time:
d
g
em
g
d
g
em
g
e---------------------------------------------------------------------------b---------------------------------------------------------------------------g----------------------------7--9b11--7---9b11--9--7--------7-----7--9b11--7d---s4--2--0-----------7--9---------------------------7--9-----9------------a--------------7--7s9-------------------------------------------------------e----------------------------------------------------------------------------

songbird
intro g
g
talking to the songbird yesterday
g/f#
em
flew me to a past not far away
em
she's a little pilot in my mind
d/f#
g
singing songs of love to pass the time
g
gonna write a song so she can see
g/f#
em
give her all the love she gives to me
em
talk of better days that have yet to come
d/f#
g
never felt this love from anyone
g
she's not anyone
g/f#
em

she's not anyone
em
she's not anyone

d/f#

g
a man can never dream these kinds of things
g/f#
em
especially when she came and spread her wings
em
whispered in my ear the things i'd like
d/f#
g
then she flew away into the night
g
gonna write a song so she can see
g/f#
em
give her all the love she gives to me
em
talk of better days that have yet to come
d/f#
g
never felt this love from anyone
g
she's not anyone
g/f#
em
she's not anyone
em
she's not anyone
g

g/f#

em

d/f# g

d/f#
4x

the masterplan
am
take the time to make some sense
g
of what you want to say
f
g
am
(e)
and cast your words away upon the waves
am
sail them home with acquiesce
g
on a ship of hope today
f
g

and as they land upon the shore
e
f
tell them not to fear no more
e
g
say it loud, and sing it proud
e
today... and then
c
dance if you wanna dance
g
please brother take a chance
am
you know they're gonna
g
which way they wanna go
c
g am
f
c
all we know is that we don't know
how its gonna be
g
please brother let it be
am
g
f
life on the other hand won't make us understand
am
we're all part of the masterplan

g

................
g
g
say it loud, and it sing it proud
e
today....
am
i'm not saying right is wrong
g
it's up to us to make
f
g
am
the best of all the things that come our way
am
cos everything thats been has past
g
the answers in the looking glass
f
g
there's four and twenty million doors
e
f
down life's endless corridor
e
g
say it loud and sing it proud
e
today...
dance if you wanna dance...
note, the second bit of
'we're all part of the masterplan'

e

goes
g
c
g
c
we're all part of the masterplan
2�vers�o:
the masterplan
-------------words and music by: noel gallagher
chords provided by mikkel bech-hansen
am
take the time to make some sense.
g
of what you wanna say,
f
g
am
e
and cast your words away upon the waves.
am
sail them home with acquisce
g
on a ship of hope today
f
g
and as they land upon the shore
e
am
tell them not to fear no more
g
say it loud and sing it proud
e
and they
c
will dance if you wanna dance
g
please brother take a chance
am
you know they�re gonna go
g
which way they�re gonna go
f
g c
g
all we know is that we don�t
c
know how it�s gonna be
g
please brother let it be
am
g
f g
life on the other hand won�t make us understand
am
we�re all part of a masterplan
.............(solo)
i think this song kick --- but i�ve found it hard to find the intro.
say it loud and sing it proud and they
i�m not saying right is wrong it�s
up to us to make
the best of all the things that come our way
cause everything there�s been has past
the answer�s in the looking glass

there�s four and twenty million doors on live�s endless corridor
say it loud and sing it proud and they
will dance if you wanna dance
please brother take a chance
you know they�re gonna go
which way they�re gonna go
all we know is that we don�t
know how it�s gonna be
please brother let it be
life on the other hand won�t make us understand
we�re all part of a masterplan
3�vers�o:
the masterplan, written by noel gallagher, performed by oasis
this is another one of my favorites by oasis, truly an epic song and
another where our lads are accompanied by a string and horn section.
there's alot of weird chords used in this song, and the chords are sort
of hard to hear (especially in the intro) because of the string
section, so keep an open mind when you see this transcription on
paper, because if you play the song, you'll hear these chords are pretty
much the right ones. written next to some of the chords i use for this
song are the chords listed in the official oasis b-sides guitar book
(thanks to paul das <> for providing these) in case you want to know what
that book has listed. unfortunately, i don't think the transcription found
in this book is a very accurate one (as is the case with many
transcriptions in the "official" oasis tab books) so you can try out these
chords if you wish, but you'll most likely agree with me that in most
cases the "official" book is incorrect.
chords used:
am
(x02210)
a7sus4 (x02030) or try (x05430) [official book: g/a (x05433)]
fmaj7/a (x03210)
[official book: f/a (x03211)]
c/b
(x2x010)
[official book: g/b (x20003)]
c
(x32010)
d
(xx0232)
e
(022100)
e7
(020100)
f
(x33211)
g
(3x0033)
intro:
----here's my attempt at the intro. it may not be exactly how noel's playing
it, but it sounds almost exactly the same. for a couple of other attempts
at how to play the intro, see the bottom of this transcription...
chords used in intro:
am
(x02210)
am/g#
(x02110)
am7
(x02010)
am/f# (x04210)
fmaj7/a (x03210)

[official
[official
[official
[official

book:
book:
book:
book:

am(maj7/g#)
am7/g
am6/f#
fmaj7

(4x2210)]
(3x2210)]
(2x2210)]
(1x2210)]

am/d
e7

(x00210)
(020100)

[official book: d

(xx0232)]

so here it goes:
am

am/g#

am7

am/f#

fmaj7/a

am/d

am

e7

(repeat)

while the book has the intro like this:
am

am(maj7/g#)

am7/g

am6/f#

fmaj7

d

g

am

e7

verse 1
------am
take the time to make some sense
a7sus4
of what you want to say
fmaj7/a
a7sus4
and cast your words away

am
e7
upon the waves

am
sail them home with acquiesce
a7sus4
on a ship of hope today
fmaj7/a
a7sus4
and as they land upon the shore
d
f
tell them not to fear no more
g
e
e7
say it loud, and sing it proud today
and then
chorus:
------c
dance if you wanna dance
c/b
please brother take a chance
am
you know they're gonna go
g
f
g c
g
which way they wanna go
all we know is that we don't
c
know how it's gonna be
c/b
please brother let it be
am
life on the other hand
g
f
g
won't make you understand
am
a7sus4
fmaj7/a
we're all part of the masterplan
am

a7sus4

fmaj7/a

a7sus4

d

f

a7sus4

am

e7

g
e
say it loud, and sing it proud today

e7

verse 2
------i'm not saying right is wrong
it's up to us to make
the best of all the things that come our way
'cos everything that's been has passed
the answer's in the looking glass
there's four and twenty million doors
down life's endless corridor
say it loud and sing it proud today
and then
chorus
after chorus the chords:
outro

c

b/c

am

g

are repeated for a while.

(same as intro)

a few more attempts at intro/outro: (note: tab below doesn't show the
rythym that should be used, just the chord forms)
am am/g# am/g am/f# am/f am/d
e--0---0-----0-----0-----0----0----0--0
b--5---5-----5-----5-----5----5----5--0
g--5---5-----5-----5-----5----5----5--1
d--7---6-----5-----4-----3----0----7--2
a--0---0-----0-----0-----0----0----0--2
e-------------------------------------0

or

-0-0-0-0-0-0-0-0- (or perhaps
-0-0-0-0-0-0-0-0- try playing
-5-5-5-5-5-5-5-1- the high e
-7-6-5-4-3-0-7-2string at
-0-0-0-0-0-0-0-2the 7th
---------------0fret)

4�vers�o:
subject: masterplan chords (there and then-video)
here is my interpretation of masterplan from the "there and then" video.
i've tried to get the intro chords for this off the video, but there are
just not enough guitar shots, so i'll just give ya what i got.
chords:
am
(xx2210)
x
(xx4030) i have no idea what this chord is, so it's x for now
am7 (xx2010)
e
(022100)
c
(x32010)
g
(320001)
f
(x33211)
(slide between the chords, don't leave pauses and it sounds much better)
am
x
take the time to make some sense, of what you wanna say....
am7

x

am

e

and cast your words away upon the waves......
am
x
sail them home with acquiesce on a ship of hope today....
am7
x
e
am7
and as they land upon the shore, tell them not to fear no more....
e
g
e
so say it loud and sing it proud todayyyy!!!
chorus:
========
c
g
dance if ya wanna dance, please brother take a chance...
am
g
you know they're gonna go, which way they wanna go.
f
g
c
all we know is that we don't know....

am

c
g
just how it's gonna be, please brother let it be
am
g
life on the other hand, won't make them understand,
c
g
am
we're all part of the masterplan.....
the song continues on following the same notation until the end when the
last part goes:
c
g
c g c g
we're all part of the masterplan
5�vers�o:
**hope this helps. if any one knows the intro (which is somewhere down
in the 4th and 5th fret), lemme know.**
subject: the masterplan
i was messing about on the guitar the other day and i think i've got
masterplan down almost exactly. have a go yourselves and see wot you think.
here are the "weird" chords used (in the form of ebgdae):
am/sus2 (005770)
g#maj7 (045660)
gmaj7
(034550)
f#maj7 (023440)
fmaj7
(012330)
em7/sus2(000000)
the intro basically starts at the am/sus2 and descends:
g#maj7 gmaj7 f#maj7 em7/sus2 am e
am
gmaj7
take the time...say

fmaj7
gmaj7
am
cast your words away....waves

e

(same again till..)
fmaj7
gmaj7
d
f
as they land upon...tell...to fear no more
g
e
say it...today
then the chorus goes as what is generally agreed to be right, i.e
c g
am g
fmaj7 g etc....
6�vers�o:
subject: the masterplan:intro and verse chords..
hey man..this is meant as an add-on to all the tabs of "the masterplan".
i have been watching "unplugged" and saw noel playing two of the chords
in the song higher on the neck than they are tabbed in all the intros in
the archive. there is also one chord in the verse played higher than
tabbed so here goes..
author/artist: oasis
title: the masterplan
transcribed by: aaron
intro (not right rhythm, just right chords..)
-0----0-------0-----0------0--------0------0----0-----------------------------5----1-------1-----1------1--------1------1----0-----------------------------5----1-------0-----2------2--------2------2----1-----------------------------7----2-------2-----4------3--------0------2----0-----------------------------7----0-------0-----0------0--------0------0----2-----------------------------x----x-------x-----x------x--------x------x----0----------------------------am? am/g#
am7
am/f# fmaj7/a am/d
am
e7
-0-----------------------------------0----------------------------------------1-----------------------------------3----------------------------------------2--rpt------------------------------5----------------------------------------2-----------------------------------4----------------------------------------0-----------------------------------0----------------------------------------x-----------------------------------x---------------------------------------take the time to make some sense of what you want to
say..
(note:replace all a7sus4's in tab with x04350)
fmaj7/a
and cast

a7sus4
your words away

am
e7
upon the waves

am
sail them home with acquiesce
a7sus4

on a ship of hope today
fmaj7/a
a7sus4
and as they land upon the shore
d
f
tell them not to fear no more
g
e
e7
say it loud, and sing it proud today
and then
chorus:
------c
dance if you wanna dance
c/b
please brother take a chance
am
you know they're gonna go
g
f
g c
g
which way they wanna go
all we know is that we don't
c
know how it's gonna be
c/b
please brother let it be
am
life on the other hand
g
f
g
won't make you understand
am
a7sus4
fmaj7/a
we're all part of the masterplan
am

a7sus4

fmaj7/a

a7sus4

d

a7sus4

am

f

g
e
say it loud, and sing it proud today

e7

verse 2
------i'm not saying right is wrong
it's up to us to make
the best of all the things that come our way
'cos everything that's been has passed
the answer's in the looking glass
there's four and twenty million doors
down life's endless corridor
say it loud and sing it proud today
and then
chorus
after chorus the chords:
outro
(same as intro)
7�vers�o:

c

b/c

am

g

are repeated for a while.

e7

"the masterplan"
performed by oasis
from the single "wonderwall" on sony/creation records
music by: n. gallagher
lyrics by: n. gallagher
this is another one of my favorites by oasis, truly an epic song and
another where our lads are accompanied by a string and horn section.
there's alot of weird chords used in this song, and the chords and
fills are sort of hard to hear (especially in the intro) because of the
string section, so keep an open mind when you see this transcription on
paper, because if you play the song, you'll hear these chords are pretty
much the right ones. written next to some of the chords i use for this
song are the chords listed in the official oasis b-sides guitar book
(thanks to paul das for providing these) in case you want
to know what that book has listed. unfortunately, i don't think the
transcription found in this book is a very accurate one (as is the case
with many transcriptions in the "official" oasis tab books) so you can try
out these chords if you wish, but you'll most likely agree with me that in
most cases the "official" book is incorrect.
chords used:
eadgbe
am
(x02210)
a7sus4 (x02030) or try (x05430) [official book: g/a (x05433)]
fmaj7/a (x03210)
[official book: f/a (x03211)]
c/b
(x2x010)
[official book: g/b (x20003)]
c
(x32010)
d
(xx0232)
e
(022100)
e7
(020100)
f
(x33211)
g
(3x0033)
tab key:
b = bend (7b8 means bend string at 7th fret to make approximately the note
the string would make if played at the 8th fret with no bend
r = release bend
h = hammer on
s = slide (a quick slide, sounds like one note)
/ = a slide where you play the first note, then slide to the second
() = harmonics, lightly touch the string directly above the fret listed
and then pick the string
intro:
----chords used in intro:
am
(x07500)
am/g#
(x06500)
am7
(x05500)
am/f# (x04500)
fmaj7/a (x03500)
am/d
(x00500)
e7
(020100)

[official
[official
[official
[official
[official

book:
book:
book:
book:
book:

am(maj7/g#)
(4x2210)]
am7/g
(3x2210)]
am6/f#
(2x2210)]
fmaj7
(1x2210)]
d
(xx0232)]

so here it goes:
am
am/g#
am7
am/f#
fmaj7/a
am/d
e------------(12)-----(12)-------(19)----------------b---------------------------(12)---------------------g----------------------------------------------------d----------------------------------------------------a----------------------------------------------------e----------------------------------------------------am
e7
e---------0----------------------------------------------b-------3---3--------------------------------------------g-------------0------------------------------------------d---2s4--------------------------------------------------a--------------------------------------------------------e--------------------------------------------------------then: repeat intro chords one more time through, with the second guitar
picking notes from the chords in a kind of random pattern, but which can
basically played like this:
am
am/g#
am/g
e------------0----------------------0--------------------b--------------0----------------------0------------------g----5--4--5-----5----------5--4--5-----5----------------d-7----------------7--7--6----------------6--6--5--etc.--a--------------------------------------------------------e--------------------------------------------------------the book has the intro like this:
am

am(maj7/g#)

am7/g

am6/f#

fmaj7

d

g

verse 1
------am
take the time to make some sense
a7sus4
of what you want to say
fmaj7/a
a7sus4
am
e7
and cast your words away
upon the waves
am
sail them home with acquiesce
a7sus4
on a ship of hope today
fmaj7/a
a7sus4
and as they land upon the shore
d
f
tell them not to fear no more
g
e
e7
say it loud, and sing it proud today
chorus:
------c

and then

am

e7

dance if you wanna dance
c/b
please brother take a chance
am
you know they're gonna go
g
f
g c
g
which way they wanna go
all we know is that we don't
c
know how it's gonna be
c/b
please brother let it be
am
life on the other hand
g
f
g
won't make you understand
am
a7sus4
fmaj7/a
we're all part of the masterplan

a7sus4

am

e7

note: this little musical interlude has a guitar solo part being played
backwards. the following is that part tabbed as it sounds backwards.
am
a7sus4
fmaj7/a a7sus4
am
e7
e-----------------------------------------------------------------7------b------------------------------------------------------------------------g-7bbbbbb9--b9r7--7--5--------------5--7b9r7--5-----------7bbbbb9------5-d-----------------------7--5--5--7---------------5-------------------7---a------------------------------------------------------------------------e------------------------------------------------------------------------am
a7sus4
fmaj7/a a7sus4 d7
f
e----------5~~~--------------5---------------------------------b--------------------------------------------------------------g-b9rrrr7--------b9rrrr7-----------7bbbbbbbbbbbb9---5----------d-------------------------7-----7----------------------7--5--7-a--------------------------------------------------------------e--------------------------------------------------------------g
e
e7
say it loud and sing it proud today
verse 2
------i'm not saying right is wrong
it's up to us to make
the best of all the things that come our way
'cos everything that's been has passed
the answer's in the looking glass
there's four and twenty million doors
down life's endless corridor
say it loud and sing it proud today
and then
[chorus same]
musical interlude

----------------c
c/b
am
g
e------------------------------------------------------b------------------------------------------------------g-----------5--5---------5--5--7--7b8.5r7--5-----5-----d------5h7----------5h7-----------------------7-----7/5a------------------------------------------------------e------------------------------------------------------c
c/b
am
g
e--------------------------------------------5----------b-------------------------------------------------------g-----7b8r7--5-----5-------5--7--5--7--7b8.5---b8.5r7--5d---------------7------5h7------------------------------a-------------------------------------------------------e-------------------------------------------------------c
c/b
am
g
e--------------------------------------------5----------b-------------------------------------------------------g-----7b8r7--5-----5-------5--7--5--7--7b8.5---b8.5r7--5d---------------7------5h7------------------------------a-------------------------------------------------------e-------------------------------------------------------c
c/b
am
g
e--------------------------------------------------b--------------------------------------------------g---------5--5---------5--5--7--7b8.5r7--5--5------d-----5h7---------5h7--------------------------7--5a--------------------------------------------------e--------------------------------------------------c
c/b
am
g
e---------------------------------------7-----------b---------------------------------------------------g-----7b8.5r7-5---5------5--5--7--7b8.5---b8.5r7--5-d---------------7----5h7----------------------------a---------------------------------------------------e---------------------------------------------------c
c/b
f
g
e------------------------------------------------------------------b------------------------------------------------------------------g-----7b8.5r7-5---5------5--5-----5-----5-----5--------------------d---------------7----5h7------5h7----7-----7-----------------------a------------------------------------------------------------------e------------------------------------------------------------------e7
am
e--------5--------5--------5--------5--------5--------5b------------------------------------------------------g--7b8.5----7b8.5----7b8.5----7b8.5----7b8.5----7b8.5--d------------------------------------------------------a------------------------------------------------------e------------------------------------------------------outro (same as intro)

8�vers�o:
here is my attempt at tabbing masterplan, i think it is relatively close. i
don't know the names of several of the chords but from watching mtv unplugged
i can tell you they are very close.
here is the intro:
the chords are basically moveable e chords for the entire intro:
the number before each "e" will indicate which fret to play the e on.
intro: am, 5e, 4e, 3e, 2e, 4e, am, e
seems easy huh? well i'm pretty sure that it is something very close to that
if not exactly.
verse:
am
4e
take the time to make some sense of what you want to say
2e
4e
am e
cast your words away upon the waves.
am
4e
sail them with acquiesce on a ship of hope today.
2e
4e
d*
f
and as they land upon the shore, tell them not to fear no more.
g
e
say it loud and sing it proud today!
c
g
dance if you want to dance, please brother take a chance.
am
g
f
you know they're gonna go which way they wanna go.
g
c
g
c
all we know is that we don't know, how it's gonna be
g
am
g
f
please brother let it be, life on the other hand won't make you understand.
g
am
we're all part of a masterplan.
then this progression: 4e, 2e, 4e, d*, f
g
e
say it loud and sing it proud today!
next verse is the same as before.
after noel stops singing, the progression is c, g, am, g (he is actually using
falsetto here on unplugged). break down for outro is: f, g, e(after he stops
falsetto). the outro is alot like the intro, so listen to it and figure it out
for yourself.

guess god thinks i'm abel
capo na 4� casa

a7
a7*
a7**
em
g
d

eadgbe
002020
002030
002032
022000
320003
000232

verse 1**********************
a7
a7*
i could be your lover
a7**
a7
you could be all mine
a7
a*
we'd go on forever
a7**
a7
till the end of time
verse 2**********************
a7
a7*
you could be my best friend
a7**
a7
stay up all night long
a7
a7*
you could be my railroad
a7**
a7
we'd go on and on
chorus***********************
em
g
let's get along
a7
there's nothing here to do
em
g
a7
let's go find a rainbow
em
g
i could be wrong
a7
but what am i to do
em
g
a7
guess god think's im abel
guitar solo*****************
verse 3 (as previous)*******
you could be my enemy
i guess theres still time
i get round to loving you
is that such a crime
chorus**********************

(as before)
followed by (3 times)*******
g
no one can break us
d
no one can take us
a7
if they tried
finish then
unexpected end section
a7
g
come along
d
a7
let's make it tonight

cast no shadow
eadgbe
a7sus4
(x02033)
g
(3x0033)
em7
(022033)
dsus4 (xx0233)
cadd9 (x32033)
intro: a7sus4

g

a7sus4

g

verse 1
------a7sus4
here's a thought for every man who tries to understand
g
what is in his hands (what's in his hands)
a7sus4
he walks along the open road of love and life
g
surviving if he can
(only if he can)
[low "e" string: play g-note, then
f# for the transition between verse & prechorus]
pre-chorus
----------

em7
dsus4
cadd9
g
bound with all the weight of all the words he tried to say
em7
dsus4
cadd9
g
chained to all the places that he never wished to stay
em7
dsus4
cadd9
g
bound with all the weight of all the words he tried to say
em7
dsus4 cadd9
as he faced the sun he cast no shadow
chorus
-----g
a7sus4
cadd9
as they took his soul they stole his pride
as they took his soul they stole his pride
as they took his soul they stole his pride
em7
dsus4 cadd9
as he faced the sun he cast no shadow

em7 dsus4
(pride)
(pride)
(pride)

musical interlude: [bass fill] then

g

a7sus4

[verse 1 again]
[pre-chorus again]
as they took his soul they stole his pride (x3)
as he faced the sun he cast no shadow (x4)

a7sus4

g

Sign up to vote on this title
UsefulNot useful