from: letostak@netcom.

com (judy letostak)
subject: basic chords and info
date: tue, 27 jun 1995 18:38:24 -0700 (pdt)
basic chord theory
judy letostak
letostak@netcom.com
hey, someone thought i should write something on basic chord theory,
in response to "beyond power chords". so here it is, hope you get
something out of this. feel free to send comments or corrections, or
anything really, i'd like to know if i'm wrong about something.

open position chords
c
d
e
f
g
a
etc...
|---0--------2---------0---------------1-------3------0-------------------|---1--------3---------0---------------1-------3------2-------------------|---0--------2---------1---------------2-------0------2-------------------|---2--------0---------2---------------3-------0------2-------------------|---3------------------2-----------------------2------0-------------------|----------------------0-----------------------3--------------------------dmin
emin
amin
fmin
|--1-------0--------0---------1-------|
|--3-------0--------1---------1-------|
|--2-------0--------2---------3-------|
|----------2--------2---------3-------|
|----------2--------0-----------------|
|----------0--------------------------|
i'm sure most of you know these, but bear with me. this is in no way
all the open chords, but i don't know them all, and there are books
(novels) out there which are like chord dictionaries. i'm just trying
to explain how they work, not give you all the chords known to man. god,
what a thought.
how these are constructed is easy. the basic major chord is based
on scale degrees. i iii
v
so, if you want to build a cmaj chord, you just use c, e, g. these are
usually non-moveable...i know some will argue, but in this case they
aren't moveable
**************************************************************************
now, there's barre chords. these are moveable, i will put a * by the root
note. the root note is what decides what the chord is called. yes, this
is also arguable, but not right now. by moving the chord up or down on
the fretboard, you change the name of the chord. so if you take gmajor and
move it to the 5th fret, it becomes a major, or down to the first fret makes
it fmajor. because you're using the bottom note to define the chord.
g major
g minor
c major
c minor
|-----3-----------3-----------3-------------3------------|
|-----3-----------3-----------5-------------4------------|
|-----4-----------3-----------5-------------5------------|

|-----5-----------5-----------5-------------5------------|
|-----5-----------5-----------3*------------3*-----------|
|-----3*----------3*-------------------------------------|
now, a minor chord is based the same way as a major with one exception
major i iii
v
minor i biii v
major scale = i, ii, iii, iv, v, vi, vii
minor scale = i, ii, biii, iv, v, bvi, bvii
ok, so to explain this a little better, if you take a c maj chord
c, e, g
and make it a c minor all you have to do is flat the third.
c, eb, g and there's your minor chord, it's really easy once you get the
hang of major - minor relationships.
***************************************************************************
ok, now onto triads. a triad is just three notes i, iii, and v major triad.
tri-three, three notes. for now, i'm only going to get into major and minor
because i don't want to confuse the issue.
dmaj
d#maj
gmaj
dmin
f#min
bmin
|---2--------3------7------|-----1--------5---------10--------------------|
|---3*-------4------8------|-----3*-------7---------12--------------------|
|---2--------3------7------|-----2--------8---------11--------------------|
|--------------------------|----------------------------------------------|
|--------------------------|----------------------------------------------|
|--------------------------|----------------------------------------------|
for the first chord, dmaj, when using it in open position, you would play
the open d for the 'root' note. well, with these triads, the root note
isn't on top. you don't play the open note (you can, lots of people use
lots of people do that, but personally i think that has been overdone
it sounds cliche anymore, but that's only my opinion).
the nice thing about triads, is you can change the actual
chord by adding a different note for a 'root' note. i'll get to that later.

|------------|
|---5--------|
|---5*-------|
|---5--------|
|---3*-------|
|------------|
remember this chord? the c major? in this chord, you're playing the
c (root) note twice, sometimes, especially with two guitarists, or a
keyboard player, it sound muddy, if you take off the bottom root note,
|--------|
|----5---|
|----5*--|
|----5---|
|--------|
|--------|

you have this, less bass doesn't sound as muddy and you can play around
more with it. and it's still a cmaj chord.

the key of cmajor
c
dmin or
emin
fmaj
gmaj
amin
|------------------1--------0-----------1--------3--------0---------------|
|---1-------3------3--------0-----------1--------3--------1---------------|
|---0-------2------2--------0-----------2--------4--------2---------------|
|---0-------3-------------------------------------------------------------|
|-------------------------------------------------------------------------|
|-------------------------------------------------------------------------|
ok, you get the picture. i encourage you to come up with your own chord
voicings. you not only learn how it's done, but you can turn them into
your own songs, i do that all the time.

something else you can do is invert the chords. i.e. using a different
bass note, playing a chord that way, makes it more interesting. and it
doesn't really sound like a generic chord anymore.
i've used this in another lesson but here it is again. an a major chord
with a c# in the bass. a, c#, e is an a major triad but by putting a c#
instead of the open a gives it a different flavor. especially when the
bassist is playing a under the chord, it sounds cool.
a/c#
d/e
etc...
|---------------|-----------------------|
|----2----------|------5----------------|
|----2----------|------5----------------|
|----2----------|------5----------------|
|----4----------|------7----------------|
|---------------|-----------------------|
************************************************************************
melodization of triads is accomplished by replacing the top note of a
triad (the root, 3rd or 5th depending on the inversion) with a higher
degree of the scale from which the chord is formed. these notes (other
than 1, 3 or 5) are referred to as tension notes, tensions or high
degrees.
general rule: a melodic tension replaces the 1st triadic tone directly
below it in pitch. (usually found on the same string).
ok in plain english
c
|----------|
|----------|
|--2-------|
|--2-------|
|--3-------|
|----------|

ok, now this is a cmajor triad, but replacing the open g with an a.
this is replacing the 1st triadic tone (g) with (a)
c, e, g
is now
c, e a. kinda cool huh? none of this is law, this
sorta stuff has to sound good to you. some of this might sound bad to you,
but, i might like it, it's personal preference.
now for some more.
f
|------|---3------|----5-------|----6-----|-------------------------------|
|--1---|----------|----6-------|----6-----|-------------------------------|
|--2---|---2------|------------|----5-----|-------------------------------|
|--3---|---3------|----7-------|----------|----7--------------------------|
|------|----------|------------|----------|----8--------------------------|
|------|----------|------------|----------|----8--------------------------|
sus chords: (suspended) which is i, iv, v. john petrucci, from dream
theater, uses these chords often. they sound good and when you can't
figure out major or minor chord to use a sus chord works great usually.
asus
f#sus
fsus
csus
|--0--------2----------|---1----------3-----------------------------------|
|--3--------2----------|---1----------3-----------------------------------|
|--2--------4----------|---3----------5-----------------------------------|
|--0--------4----------|---1----------5-----------------------------------|
|--0-------------------|---3----------3-----------------------------------|
|----------------------|---1----------------------------------------------|

something else i just thought of. one of my teachers, (i used to call him
adolf, because he was such a tyrant), told me to buy a drum book. like
a book with rhythm patterns in it, to use for ideas for different strumming.
where to put the accent it doesn't necessarily have to be on the beat.
someone who does this well (scoff if you like) is melissa etheridge. she
writes some really interesting rhythms, not great progressions (they're all
in emin) but she has a great sense of timing and rhythm.
anyway, i'm off the beaten path, so back to chords.
i'm sure you all know about power chords i.e. root & fifth
|----------------------------------|
|----------------6-----etc...------|
|----------------5-----------------|
|---------5------------------------|
|--5------3------------------------|
|--3-------------------------------|
you can play around with those as well. something that george lynch used
to do a lot with dokken was either lower the root, or the fifth.

|--------------|-------------------------|
|--------------|-------------------------|
|--------------|-------------------------|
|--------------|--------9----------8-----|
|---5-----5----|--------7----------7-----|
|---3-----2----|--0--0-------0--0--------|
he doesn't do that much anymore...gee, i wonder why? :) don't use that
too much, it's been over used, it's good for just a passing thing, but
basing a whole song on it, would be ? i don't know, never tried it.
here's something cool, that uses that, (ok, i'm guilty of being
boring and cliche myself sometimes).
|---------------------------------------|
|---------------------------------------|
|----9----------------------------9-----|
|----7\6--------------------------6/7---|
|---------0--0--0--0--0--0--0--0--------|
|---------------------------------------|
something like that, i use it in one of my songs, someone dubbed it "the
riff that wouldn't die" because it sounds so happy, and no one in any of
my bands wanted to use it, i kept bringing it up when we were writing, and
everytime i did, everyone would roll their eyes, and groan... :)
it just repeats a few times, then goes to dmaj and repeats, it's like a
chorus or something.

ok, so this is close to the end for me, i'm going to give you some basic
theory on chords, you can figure out the rest. feel free to ask questions,
or correct my screw ups.
major
chord
c
g
d
a
e
b
f#
f
bb
eb
ab
db
gb
minor
chord
cm
gm

=

i

c
g
d
a
e
b
f#
f
bb
eb
ab
db
gb

e
b
f#
c#
g#
d#
a#
a
d
g
c
f
bb

=

i

c
g

iii

eb
bb

v

g
d
a
e
b
f#
c#
c
f
bb
eb
ab
db
iiib
g
d

v

dm
d
am
a
em
e
bm
b
f#m
f#
fm
f
bbm
bb
ebm
eb
abm
ab
dbm
db
gbm
gb
flat twice

f
a
c
e
g
b
d
f#
a
c#
ab c
db f
gb bb
cb eb
fb ab
bbb db (bbb is the same as a)
would bring it down a whole step

dominant
chord
c7
c
g7
g
d7
d
a7
a
e7
e
b7
b
f#7
f#
f7
f
bb7
bb
eb7
eb
ab7
ab
db7
db
gb7
gb

=
e
b
f#
c#
g#
d#
a#
a
d
g
c
f
bb

i

iii
g
d
a
e
b
f#
c#
c
f
bb
eb
ab
db

v

viib

bb
f
c
g
d
a
e
eb
ab
db
gb
cb (b)
fb

************************************************************************
chord name
*
formula
*
example
*
************************************************************************
major
1 3 5
c e g
suspended
1 4 5
c f g
major add nine
1 3 5 9
c e g d
minor
1 b3 5
c eb g
augmented
1 3 #5
c e g#
major six
1 3 5 6
c e g a
major six add nine
1 3 5 6 9
c e g a d
minor six
1 b3 5 6
c eb g a
minor six add nine
1 b3 5 6 9
c eb g a d
dominant seven
1 3 5 b7
c e g bb
seven suspended
1 4 5 b7
c f g bb
minor seven
1 b3 5 b7
c eb g bb
diminished seven
1 b3 b5 bb7
c eb gb bbb (a)
major seven
1 3 5 7
c e g b
minor major seven
1 b3 5 7
c eb g b
ninth
1 3 5 b7 9
c e g bb d
minor nine
1 b3 5 b7 9
c eb g bb d
major nine
1 3 5 7 9
c e g b d
eleventh
1 (3) 5 b7 9 11
c (e) g bb d f ()=optional
minor eleventh
1 b3 5 b7 9 11
c eb g bb d f
thirteenth
1 3 5 b7 9(11) 13
c e g bb d(f) a ()=optional
minor thirteen
1 b3 5 b7 9(11) 13 c eb g bb d(f) a ()=optional
*************************************************************************

scale note:
chord
constructed:
c
c
g
g
d
d
a
a
e
e
b
b
f#
f#
f
f
bb
bb
eb
eb
ab
ab
db
db
gb
gb

i

ii

iii

iv

v

vi

vii

maj
d
a
e
b
f#
c#
g#
g
c
f
bb
eb
ab

min
e
b
f#
c#
g#
d#
a#
a
d
g
c
f
bb

min
f
c
g
d
a
e
b
bb
eb
ab
db
gb
cb

maj
g
d
a
e
b
f#
c#
c
f
bb
eb
ab
db

maj
a
e
b
f#
c#
g#
d#
d
g
c
f
bb
eb

min
b
f#
c#
g#
d#
a#
e#
e
a
d
g
c
f

dim

==========================================================================
legend:
.......
\slide down /slide up
h = hammeron
p = pulloff
* = artifical harmonic
t = tap with right hand
b = bend (steps are indicated over note)

bf = bend full (one step)
rb = release bend
~ = vibrato
x = ghost note
ps = pick scrape
tr = trill

the music shop bbs (619)423-4970
==========================================================================

Sign up to vote on this title
UsefulNot useful