You are on page 1of 13

Muse - New Born

Tuning-Drop D
Intro (Tabbed from the piano)
e|------7-------7---|------7-------8---|
B|----8---8---8---8-|----7---7---7---7-|
G|--9-------9-------|--8-------8-------| X2
D|------------------|------------------|
A|------------------|------------------|
D|------------------|------------------|
e|------7-------7---|------8---10---8---|------7-------7---|------7------7---|
B|----8---8---8---8-|----8---8----8---8-|----8---8---8---8-|----7---7---7--7-|
G|--9-------9-------|--9----------------|--7-------7-------|--8------8-------|
D|------------------|-------------------|------------------|-----------------|
A|------------------|-------------------|------------------|-----------------|
D|------------------|-------------------|------------------|-----------------|
e|------7-------7---|------7-------8---|
B|----8---8---8---8-|----7---7---7---7-|
G|--9-------9-------|--8-------8-------| X2
D|------------------|------------------|
A|------------------|------------------|
D|------------------|------------------|
e|------7-------7---|------8-------8---|------7-------7---|--7---------------|
B|----8---8---8---8-|----8---8---8---8-|----8---8---8---8-|--7---------------|
G|--9-------9-------|--9-------9-------|--7-------7-------|--8---------------|
D|------------------|------------------|------------------|------------------|
A|------------------|------------------|------------------|------------------|
D|------------------|------------------|------------------|------------------|
Main Riff
e|------------------|--------------------|-------------------|-----------------|
B|------------------|--------------------|-------------------|-----------------|
G|------------------|--------------------|-------------------|-----------------|
D|------------------|--------------------|-------------------|-----------------|
A|------------------|--------------------|-------------------|-----------------|
D|--2-2-2-2-5-2-5-6-|-7-7-7-7-10-7-10-11-|-12-0-0-12-0-0-3-4-|-5-5-5-5-9-9-99-|

e|-0---------------|--------------------|-------------------|-----------------|
B|--1---------------|--2-----------------|--0----------------|4---------------|
G|--0---------------|--0-----------------|--0----------------|4---------------|
D|--2---------------|--2-----------------|--2----------------|4---------------|
A|--3---------------|--1-----------------|--2----------------|2---------------|
D|------------------|--------------------|-------------------|----------------|
Verse (Hopeless time to roam...)
e|--7--|--7--|--7--|--7--|--7--|--8--|--7--|--7--|
B|--8--|--7--|--8--|--7--|--8--|--8--|--8--|--7--|
G|--9--|--8--|--9--|--8--|--9--|--9--|--7--|--8--|
Chorus (Destroy the spineless...)
e|-0------|---------|---------|---------|---------|---------|---------|---------|
B|--0------|--10-----|---------|---------|--8------|--8------|--0------|-4------|
G|--0------|--9------|--11-----|--12-----|--9------|--6------|--0------|-4------|
D|--2------|--7------|--0------|--0------|--10-----|--8------|--2------|-4------|
A|--2------|--7------|--9------|--10-----|--7------|--7------|--2------|-2------|
D|--2------|--7------|--0------|-0------|---------|---------|---------|---------|
SOLO Album Version
w/Whammy
e|-----------------------------------------------------------------------|
B|-12-12-12-12-8-8-8-8-5-5-5-5-8-8-0/-12-12-12-12-7-7-7-7-4-4-4-4-7-7-0/-|
G|-----------------------------------------------------------------------|
D|-----------------------------------------------------------------------|
A|-----------------------------------------------------------------------|
E|-----------------------------------------------------------------------|
e|-----------------------------------------------------------------------|
B|-12-12-12-12-8-8-8-8-5-5-5-5-8-8-0/-12-12-12-12-7-7-7-7-4-4-4-4-7-7-0/-|
G|-----------------------------------------------------------------------|
D|-----------------------------------------------------------------------|
A|-----------------------------------------------------------------------|
E|-----------------------------------------------------------------------|
e|-------------------------------------------------------------------------|
B|-12-12-12-12-8-8-8-8-5-5-5-5-1-1-1-1-13-13-13-13-8-8-8-8-5-5-5-5-0-0-0-0-|
G|-------------------------------------------------------------------------|
D|-------------------------------------------------------------------------|
A|-------------------------------------------------------------------------|
E|-------------------------------------------------------------------------|

e|----------------------------|----------------------------|
B|-12-12-12-12-8-8-8-8-3-3-3--|-4-4-4-4-7-7-7-7-12-12-12/\-|
G|----------------------------|----------------------------|
D|----------------------------|----------------------------|
A|----------------------------|----------------------------|
E|----------------------------|----------------------------|
e|-----------------------------------------------------------------------|
B|-12-12-12-12-8-8-8-8-5-5-5-5-8-8-0/-12-12-12-12-7-7-7-7-4-4-4-4-7-7-0/-|
G|-----------------------------------------------------------------------|
D|-----------------------------------------------------------------------|
A|-----------------------------------------------------------------------|
E|-----------------------------------------------------------------------|
e|----------------------------------------------------------------------|
B|-12/\8-8-8-8-5-5-5-5-8-8-8-8-12-12-12-12-7-7-7-7-4-4-4-4-7-7-7-7-0/---|
G|----------------------------------------------------------------------|
D|----------------------------------------------------------------------|
A|----------------------------------------------------------------------|
D|----------------------------------------------------------------------|
e|----------------------------------------------------------------------|
B|-12/\-8/\-5-5-5-5-12-12-12-12-13-13-13-13-8-8-8-8-5-5-5-5-13-13-13-13-|
G|----------------------------------------------------------------------|
D|----------------------------------------------------------------------|
A|----------------------------------------------------------------------|
D|----------------------------------------------------------------------|
e|------------------------------------|
B|--12-12-12-12-8-8-8-8-3----4--------|
G|------------------------------------|
D|------------------------------------|
A|------------------------------------|
D|------------------------------------|
SOLO Live Version
w/Whammy
Play each for a bar
e|-----------|-----------|-----------|-----------|
B|--t12p9h5--|--t12p4h7--|--t12p9h5--|--t12p4h7--|
G|-----------|-----------|-----------|-----------|
D|-----------|-----------|-----------|-----------|
A|-----------|-----------|-----------|-----------|
D|-----------|-----------|-----------|-----------|
e|-----------|-----------|-----------|-----------|
B|--t12p5h8--|--t13p5h8--|--t12p3h7--|--t12p5h8--|
G|-----------|-----------|-----------|-----------|
D|-----------|-----------|-----------|-----------|
A|-----------|-----------|-----------|-----------|
D|-----------|-----------|-----------|-----------|
Now you can either go to the second part of the normal solo or do this little
shred thing
that Ive seen Matt do. Check out the Muse website if you wanna see it.
w/Whammy

e|-20-19-17-19-17-15-17-15-14-15-14-12-14-12-11-|
B|----------------------------------------------|
G|----------------------------------------------|
D|----------------------------------------------| x2
A|----------------------------------------------|
D|----------------------------------------------|
Then just randomly hit any note on the high E string, go mental.
Repeat Verse, Chorus then Main Riff.

Preview

Piste 1

E|-------------|---------------------|---------------------|--------------------|
B|-------------|-12---8----5----8----|-12---7----4----7----|-12---8----5---8----|
G|-------------|---------------------|---------------------|--------------------|
D|-------------|---------------------|---------------------|--------------------|
A|-------------|---------------------|---------------------|--------------------|
E|-------------|---------------------|---------------------|--------------------|
E|---------------------|---------------------|---------------------|----------------|
B|-12---7----4----7----|-12---8----5----8----|-13---8----5----8----|-12--8----3-----|
G|---------------------|---------------------|---------------------|----------------|
D|---------------------|---------------------|---------------------|----------------|
A|---------------------|---------------------|---------------------|----------------|
E|---------------------|---------------------|---------------------|----------------|
E|-----------------|---------------------|---------------------|--------------------|
B|-4----7----12----|-12---8----5----8----|-12---7----4----7----|-12---8---5----8----|
G|-----------------|---------------------|---------------------|--------------------|
D|-----------------|---------------------|---------------------|--------------------|
A|-----------------|---------------------|---------------------|--------------------|
E|-----------------|---------------------|---------------------|--------------------|

E|---------------------|---------------------|---------------------|----------------|
B|-12---7----4----7----|-12---8----5----8----|-12---7----4----7----|-12--8----3-----|
G|---------------------|---------------------|---------------------|----------------|
D|---------------------|---------------------|---------------------|----------------|
A|---------------------|---------------------|---------------------|----------------|
E|---------------------|---------------------|---------------------|----------------|
E|-------------|-------------|-------------|---------------------|--------------------|
B|-4-----4-----|-------------|-------------|-12------------------|12------------------|
G|-------------|-------------|-------------|------12---9----12---|------11--8----11---|
D|-------------|-------------|-------------|---------------------|--------------------|
A|-------------|-------------|-------------|---------------------|--------------------|
E|-------------|-------------|-------------|---------------------|--------------------|
E|---------------------|---------------------|---------------------|--------------------|
B|-12------------------|-12------------------|-12------------------|13------------------|
G|------12---9----12---|------11---8----11---|------12---9----12---|-----12---9----12---|
D|---------------------|---------------------|---------------------|--------------------|
A|---------------------|---------------------|---------------------|--------------------|
E|---------------------|---------------------|---------------------|--------------------|
E|-----------------|-----------------|---------------------|--------------------|
B|-12--------------|-----------12----|-12------------------|12------------------|
G|------12---7-----|-8----11---------|------12---9----12---|------11---8---11---|
D|-----------------|-----------------|---------------------|--------------------|
A|-----------------|-----------------|---------------------|--------------------|
E|-----------------|-----------------|---------------------|--------------------|

E|---------------------|---------------------|---------------------|--------------------|
B|-12------------------|-12------------------|-12------------------|12------------------|
G|------12---9----12---|------11---8----11---|------12---9----12---|-----11---8----11---|
D|---------------------|---------------------|---------------------|--------------------|
A|---------------------|---------------------|---------------------|--------------------|
E|---------------------|---------------------|---------------------|--------------------|
E|-----------------|--------|
B|-12--------------|--------|
G|------12---7-----|-8------|
D|-----------------|--------|
A|-----------------|--------|
E|-----------------|--------|

Song: Plug In Baby


Album : Origin Of Symmetry
Artist: Muse
Ok. This tab is How really Matt Bellamy Play The song, I see it in
Some Live videos, so this tab is very acurate.
Standard Tunning ( e - B - G - D - A - E )
h: Hammer On
p: Pull off
b: Bend
Intro ( Main riff ):
e|-----------------------------|----------------------------------|
B|-----------------------------|----------------------------------|
G|-----------------------------|----------9--11h12p11--9----------|
D|--8--9--11--8--9--11--12--9--|--11--12------------------12-11---|
A|-----------------------------|----------------------------------|
E|-----------------------------|----------------------------------|
e|-------------------------------|-----------------------------------|
B|-------------------------------|-----------------------------------|
G|------------------------9------|---------11--11h12p11--10--11--10--|
D|--9--11--12--9--11--12-----11--|--12--9----------------------------|
A|-------------------------------|-----------------------------------|
E|-------------------------------|-----------------------------------|

e|--------------------------|------------------------|
B|--7-----------------7--9--|--9b--7--6--7-----------|
G|-----7-----------7--------|---------------7--6--7--|
D|--------7-----7-----------|------------------------|
A|-----------4--------------|------------------------|
E|--------------------------|------------------------|
e|-----------------------------|----------------------------------|
B|-----------------------------|----------------------------------|
G|-----------------------------|----------9--11h12p11--9----------|
D|--8--9--11--8--9--11--12--9--|--11--12------------------12-11---|
A|-----------------------------|----------------------------------|
E|-----------------------------|----------------------------------|
e|-------------------------------|-----------------------------------|
B|-------------------------------|-----------------------------------|
G|------------------------9------|---------11--11h12p11--10--11--10--|
D|--9--11--12--9--11--12-----11--|--12--9----------------------------|
A|-------------------------------|-----------------------------------|
E|-------------------------------|-----------------------------------|
e|--------------------------|------------------------|
B|--7-----------------7--9--|--9b--7--6--7-----------|
G|-----7-----------7--------|---------------7--6--7--|
D|--------7-----7-----------|------------------------|
A|-----------4--------------|------------------------|
E|--------------------------|------------------------|
e|-----------------------------|----------------------------------|
B|-----------------------------|----------------------------------|
G|-----------------------------|----------9--11h12p11--9----------|
D|--8--9--11--8--9--11--12--9--|--11--12------------------12-11---|
A|-----------------------------|----------------------------------|
E|-----------------------------|----------------------------------|
e|-----|
B|-----|
G|-----| Fade out . Verse enter Here
D|--9--|
A|-----|
E|-----|
Before of The Pre-Chorus theres a little arpegios, this arpegios are played
of this way :
e|-------------|--------------|------------|--------------|
B|--10---------|--11----------|--12--------|--10----------|
G|-----11------|------11------|-----13-----|------11------|
D|---------12--|----------11--|--------12--|----------12--|
A|-------------|--------------|------------|--------------|
E|-------------|--------------|------------|--------------|
Pre-Chorus :
e|--------------------------|---------------------------------|

B|--------------------------|---------------------------------|
G|--------------------------|------------------------------0--|
D|--------------------------|--10--10--10--10--10--10--10--0--|
A|--9--9--9--9--9--9--9--9--|---9---9---9---9---9---9---9--0--|
E|--9--9--9--9--9--9--9--9--|---9---9---9---9---9---9---9--0--|
Chorus ( the timming is in order you got to listen the song for played in
correct form ):
e|--------------------------|
e|--------------------------|
B|--3--3--3--3--3--3--3--3--|
B|--------------------------|
G|--4--4--4--4--4--4--4--4--|(X 2) G|--4--4--4--4--4--4--4--4--|
D|--5--5--5--5--5--5--5--5--|
D|--4--4--4--4--4--4--4--4--|
A|--5--5--5--5--5--5--5--5--|
A|--2--2--2--2--2--2--2--2--|
E|--x--x--x--x--x--x--x--x--|
E|--------------------------|
e|--2--2--2--2--2--2--2--2--|
B|--2--2--2--2--2--2--2--2--|
G|--4--4--4--4--4--4--4--4--|
D|--4--4--4--4--4--4--4--4--|
A|--2--2--2--2--2--2--2--2--|
E|--2--2--2--2--2--2--2--2--|
e|--------------------------|
e|--------------------------|
B|--3--3--3--3--3--3--3--3--|
B|--------------------------|
G|--4--4--4--4--4--4--4--4--|(X 2) G|--4--4--4--4--4--4--4--4--|
D|--5--5--5--5--5--5--5--5--|
D|--4--4--4--4--4--4--4--4--|
A|--5--5--5--5--5--5--5--5--|
A|--2--2--2--2--2--2--2--2--|
E|--x--x--x--x--x--x--x--x--|
E|--------------------------|
e|--2--2--2--2--2--2--2--2--|
B|--2--2--2--2--2--2--2--2--|
G|--4--4--4--4--4--4--4--4--|
D|--4--4--4--4--4--4--4--4--|
A|--2--2--2--2--2--2--2--2--|
E|--2--2--2--2--2--2--2--2--|
e|--------------------------|
e|--------------------------|
B|--3--3--3--3--3--3--3--3--|
B|--------------------------|
G|--4--4--4--4--4--4--4--4--|(X 2) G|--4--4--4--4--4--4--4--4--|
D|--5--5--5--5--5--5--5--5--|
D|--4--4--4--4--4--4--4--4--|
A|--5--5--5--5--5--5--5--5--|
A|--2--2--2--2--2--2--2--2--|
E|--x--x--x--x--x--x--x--x--|
E|--------------------------|
e|--2--2--2--2--2--2--2--2--|
B|--2--2--2--2--2--2--2--2--|
G|--4--4--4--4--4--4--4--4--|
D|--4--4--4--4--4--4--4--4--|
A|--2--2--2--2--2--2--2--2--|
E|--2--2--2--2--2--2--2--2--|
e|--------------------------|--------------------------|
B|--3--3--3--3--3--3--3--3--|--3--3--3--3--3-----------|
G|--4--4--4--4--4--4--4--4--|--4--4--4--4--4-----------|
D|--5--5--5--5--5--5--5--5--|--5--5--5--5--5--7--7--7--|
A|--5--5--5--5--5--5--5--5--|--5--5--5--5--5--7--7--7--|
E|--x--x--x--x--x--x--x--x--|--x--x--x--x--x--5--5--5--|

e|--2--2--2--2--2--2--2--2--|
B|--3--3--3--3--3--3--3--3--|
G|--2--2--2--2--2--2--2--2--| (X 2)
D|--0--0--0--0--0--0--0--0--|
A|--0--0--0--0--0--0--0--0--|
E|--------------------------|
Enter Main Riff :
e|-----------------------------|----------------------------------|
B|-----------------------------|----------------------------------|
G|-----------------------------|----------9--11h12p11--9----------|
D|--8--9--11--8--9--11--12--9--|--11--12------------------12-11---|
A|-----------------------------|----------------------------------|
E|-----------------------------|----------------------------------|
e|-------------------------------|-----------------------------------|
B|-------------------------------|-----------------------------------|
G|------------------------9------|---------11--11h12p11--10--11--10--|
D|--9--11--12--9--11--12-----11--|--12--9----------------------------|
A|-------------------------------|-----------------------------------|
E|-------------------------------|-----------------------------------|
e|--------------------------|------------------------|
B|--7-----------------7--9--|--9b--7--6--7-----------|
G|-----7-----------7--------|---------------7--6--7--|
D|--------7-----7-----------|------------------------|
A|-----------4--------------|------------------------|
E|--------------------------|------------------------|
e|-----------------------------|----------------------------------|
B|-----------------------------|----------------------------------|
G|-----------------------------|----------9--11h12p11--9----------|
D|--8--9--11--8--9--11--12--9--|--11--12------------------12-11---|
A|-----------------------------|----------------------------------|
E|-----------------------------|----------------------------------|
e|-----|
B|-----|
G|-----| Fade out . Verse 2 Enter Here
D|--9--|
A|-----|
E|-----|
Arpegios Before Of the Pre-Chorus enter again :
e|-------------|--------------|------------|--------------|
B|--10---------|--11----------|--12--------|--10----------|
G|-----11------|------11------|-----13-----|------11------|
D|---------12--|----------11--|--------12--|----------12--|
A|-------------|--------------|------------|--------------|
E|-------------|--------------|------------|--------------|
Pre-Chorus :
e|--------------------------|---------------------------------|

B|--------------------------|---------------------------------|
G|--------------------------|------------------------------0--|
D|--------------------------|--10--10--10--10--10--10--10--0--|
A|--9--9--9--9--9--9--9--9--|---9---9---9---9---9---9---9--0--|
E|--9--9--9--9--9--9--9--9--|---9---9---9---9---9---9---9--0--|
Chorus

|--------------------------|
e|-----------------------------|
B|--3--3--3--3--3--3--3--3--|
B|----------------------------|
G|--4--4--4--4--4--4--4--4--|(X 2) G|--4--4--4--4--4--4--4--4----|
D|--5--5--5--5--5--5--5--5--|
D|--4--4--4--4--4--4--4--4----|
A|--5--5--5--5--5--5--5--5--|
A|--2--2--2--2--2--2--2--2----|
E|--x--x--x--x--x--x--x--x--|
E|----------------------------|
e|--2--2--2--2--2--2--2--2--|
B|--2--2--2--2--2--2--2--2--|
G|--4--4--4--4--4--4--4--4--|
D|--4--4--4--4--4--4--4--4--|
A|--2--2--2--2--2--2--2--2--|
E|--2--2--2--2--2--2--2--2--|
e|--------------------------|
e|--------------------------|
B|--3--3--3--3--3--3--3--3--|
B|--------------------------|
G|--4--4--4--4--4--4--4--4--|(X 2) G|--4--4--4--4--4--4--4--4--|
D|--5--5--5--5--5--5--5--5--|
D|--4--4--4--4--4--4--4--4--|
A|--5--5--5--5--5--5--5--5--|
A|--2--2--2--2--2--2--2--2--|
E|--x--x--x--x--x--x--x--x--|
E|--------------------------|
e|--2--2--2--2--2--2--2--2--|
B|--2--2--2--2--2--2--2--2--|
G|--4--4--4--4--4--4--4--4--|
D|--4--4--4--4--4--4--4--4--|
A|--2--2--2--2--2--2--2--2--|
E|--2--2--2--2--2--2--2--2--|
e|--------------------------|
e|--------------------------|
B|--3--3--3--3--3--3--3--3--|
B|--------------------------|
G|--4--4--4--4--4--4--4--4--|(X 2) G|--4--4--4--4--4--4--4--4--|
D|--5--5--5--5--5--5--5--5--|
D|--4--4--4--4--4--4--4--4--|
A|--5--5--5--5--5--5--5--5--|
A|--2--2--2--2--2--2--2--2--|
E|--x--x--x--x--x--x--x--x--|
E|--------------------------|
e|--2--2--2--2--2--2--2--2--|
B|--2--2--2--2--2--2--2--2--|
G|--4--4--4--4--4--4--4--4--|
D|--4--4--4--4--4--4--4--4--|
A|--2--2--2--2--2--2--2--2--|
E|--2--2--2--2--2--2--2--2--|
e|--------------------------|--------------------------|
B|--3--3--3--3--3--3--3--3--|--3--3--3--3--3-----------|
G|--4--4--4--4--4--4--4--4--|--4--4--4--4--4-----------|
D|--5--5--5--5--5--5--5--5--|--5--5--5--5--5--7--7--7--|
A|--5--5--5--5--5--5--5--5--|--5--5--5--5--5--7--7--7--|
E|--x--x--x--x--x--x--x--x--|--x--x--x--x--x--5--5--5--|

e|--2--2--2--2--2--2--2--2--|
B|--3--3--3--3--3--3--3--3--|
G|--2--2--2--2--2--2--2--2--| (X 2)
D|--0--0--0--0--0--0--0--0--|
A|--0--0--0--0--0--0--0--0--|
E|--------------------------|
After of the end Chorus youll play the Main riff for the Outro :
e|-----------------------------|----------------------------------|
B|-----------------------------|----------------------------------|
G|-----------------------------|----------9--11h12p11--9----------|
D|--8--9--11--8--9--11--12--9--|--11--12------------------12-11---|
A|-----------------------------|----------------------------------|
E|-----------------------------|----------------------------------|
e|-------------------------------|-----------------------------------|
B|-------------------------------|-----------------------------------|
G|------------------------9------|---------11--11h12p11--10--11--10--|
D|--9--11--12--9--11--12-----11--|--12--9----------------------------|
A|-------------------------------|-----------------------------------|
E|-------------------------------|-----------------------------------|
e|--------------------------|------------------------|
B|--7-----------------7--9--|--9b--7--6--7-----------|
G|-----7-----------7--------|---------------7--6--7--|
D|--------7-----7-----------|------------------------|
A|-----------4--------------|------------------------|
E|--------------------------|------------------------|
e|-----------------------------|----------------------------------|
B|-----------------------------|----------------------------------|
G|-----------------------------|----------9--11h12p11--9----------|
D|--8--9--11--8--9--11--12--9--|--11--12------------------12-11---|
A|-----------------------------|----------------------------------|
E|-----------------------------|----------------------------------|
e|-------------------------------|-----------------------------------|
B|-------------------------------|-----------------------------------|
G|------------------------9------|---------11--11h12p11--10--11--10--|
D|--9--11--12--9--11--12-----11--|--12--9----------------------------|
A|-------------------------------|-----------------------------------|
E|-------------------------------|-----------------------------------|
e|--------------------------|------------------------|
B|--7-----------------7--9--|--9b--7--6--7-----------|
G|-----7-----------7--------|---------------7--6--7--|
D|--------7-----7-----------|------------------------|
A|-----------4--------------|------------------------|
E|--------------------------|------------------------|
e|-----------------------------|----------------------------------|
B|-----------------------------|----------------------------------|
G|-----------------------------|----------9--11h12p11--9----------|
D|--8--9--11--8--9--11--12--9--|--11--12------------------12-11---|
A|-----------------------------|----------------------------------|

E|-----------------------------|----------------------------------|
e|-------------------------------|-----------------------------------|
B|-------------------------------|-----------------------------------|
G|------------------------9------|---------11--11h12p11--10--11--10--|
D|--9--11--12--9--11--12-----11--|--12--9----------------------------|
A|-------------------------------|-----------------------------------|
E|-------------------------------|-----------------------------------|
e|--------------------------|------------------------|
B|--7-----------------7--9--|--9b--7--6--7-----------|
G|-----7-----------7--------|---------------7--6--7--|
D|--------7-----7-----------|------------------------|
A|-----------4--------------|------------------------|
E|--------------------------|------------------------|
e|-----------------------------|----------------------------------|
B|-----------------------------|----------------------------------|
G|-----------------------------|----------9--11h12p11--9----------|
D|--8--9--11--8--9--11--12--9--|--11--12------------------12-11---|
A|-----------------------------|----------------------------------|
E|-----------------------------|----------------------------------|
e|-----|
B|-----|
G|-----| Fade out
D|--9--|
A|-----|
E|-----|
You Can Play this during the outro riff for a complet sound:
e|----------------------------------|
B|----------------------------------|
G|--11--11--11--11--11--11--11--11--| (X 2)
D|--11--11--11--11--11--11--11--11--|
A|---9---9---9---9---9---9---9---9--|
E|----------------------------------|
e|----------------------------------|
B|----------------------------------|
G|--12--12--12--12--12--12--12--12--|
D|--12--12--12--12--12--12--12--12--| (X 2)
A|--10--10--10--10--10--10--10--10--|
E|----------------------------------|
e|--------------------------|
B|--7--7--7--7--7--7--7--7--|
G|--7--7--7--7--7--7--7--7--| (X 2)
D|--7--7--7--7--7--7--7--7--|
A|--5--5--5--5--5--5--5--5--|
E|--------------------------|
The Chords of above are plaing 3 times together.

Ok...Sorry for my poor english..i think is much better than the other tabs of
this
song..Enjoy...Muse Rocks The World..
Thats all,Have Fun