You are on page 1of 20

fantasy - 30 secs 2 mars

intro:
e ---------------------------------------------------------------------------|
b ---------------------------------------------------------------------------|
g ---------------------------------------------------------------------------|
d ---------------------------------------------------------------------------|
a -13-13-13-13-13-13-13--11-11-11-11-13-14-13--8-8-9--9-9-11--11-11-9--9-9-8-|
e ---------------------------------------------------------------------------|

e --------------------------------------------------------------------------|
b --------------------------------------------------------------------------|
g --------------------------------------------------------------------------|
d --------------------------------------------------------------------------|
a -13-13-13-13-13-13-13--11-11-11-11-13-14-13--8-8-9--9-9-11----------------|
e --------------------------------------------------------------------------|

the chorus uses the following chords, just liseten for the strumming pattern
e ---------------------------------------------------------------------------|
b ---------------------------------------------------------------------------|
g ---------------------------------------------------------------------------|
d -9--11--13-----------------------------------------------------------------|
a -9--11--13-----------------------------------------------------------------|
e -7---9--11-----------------------------------------------------------------|

the bridge uses these chords, again listen for strumming pattern
e --------------------------------------------------------------------------|
b --------------------------------------------------------------------------|
g --------------------------------------------------------------------------|
d -13--14--16---------------------------------------------------------------|
a -13--14--16---------------------------------------------------------------|
e -11--12--14---------------------------------------------------------------|

i think these are right, it sounds good when i play it along so. happy playing,
and rock on \m/
**********************************************************************************
***
**********************************************************************************
***
twilight
u2

========
twilight
========

transcribed by richard averill.


if you have any corrections, complements or whatever,
e-mail me at: nigelolympus@tinet.ie

-----
notes
-----

there are actually two guitars on the cd, but i have arranged
the song so it is playable on one.
tune all the strings on your guitar down a semitone.
set up a bright, clear tone with a bit of reverb.

the tempo is 142 beats per minute.

bar part
--- ----
1-19 intro.
20-27 verse 1.
28-31 bridge.
32-39 verse 2.
40-43 bridge.
44-61 1st chorus.
62-86 bridge.
87-102 2nd chorus.
103-118 solo.
119-136 3rd chorus.
137-144 ending.

-----
intro
-----

mute the 2nd and 3rd strings but let notes on the 1st string ring.

pm... pm... pm... pm... pm... pm...


1|---------0-----------5-----------0-------|---5-----------0-----------5---|
2|-----3---|-------3-----------3-----------3-----------3-----------3-------|
3|-4-------|---4-----------4-----------4---|-------4-----------4-----------|
4|---------|-------------------------------|-------------------------------|
5|---------|-------------------------------|-------------------------------|
6|---------|-------------------------------|-------------------------------|

4 + 1 + 2 + 3 + 4 + 1 + 2 + 3 + 4 +
________________________________________________________________
/ x5
/ pm... pm... pm... pm... pm... pm
1|---------0-----------5-----------0-----------5-----------0-------|
2|-----3-----------3-----------3---|-------3-----------3-----------|
3|-4-----------4-----------4-------|---4-----------4-----------4---|
4|---------------------------------|-------------------------------|
5|---------------------------------|-------------------------------|
6|---------------------------------|-------------------------------|
1 + 2 + 3 + 4 + 1 + 2 + 3 + 4 +

_______________________________
\
pm pm... pm... \
1|-----5-----------0-----------5---|
2|-3-----------3-----------3-------|
3|---------4-----------4-----------|
4|---------------------------------|
5|---------------------------------|
6|---------------------------------|
1 + 2 + 3 + 4 +

1|---------0-----------5-------0---|-------5-----------0-----------|
2|-----3-----------3-----------0---|-------0-----------0-----------|
3|-4-----------4-----------4-------|-------------------------------|
4|---------------------------------|-------------------------------|
5|---------------------------------|-------------------------------|
6|---------------------------------|-------------------------------|
1 + 2 + 3 + 4 + 1 + 2 + 3 + 4 +

-------
verse 1
-------

(0:34)

pm............... pm................
1|---------------------------------|-------------------------------|
2|-0---8---------------------------0---10--------------------------|
3|-0---9-------9-------9---9---9---0---11------11------11--11--11--|
4|---------------------------------|-------------------------------|
5|---------------------------------|-------------------------------|
6|---------------------------------|-------------------------------|
1 + 2 + 3 + 4 + 1 + 2 + 3 + 4 +

pm...............
1|-0---7---------------------------0-----------12------------------|
2|-0---8-------8-------8---8---8---0---10--------------10----------|
3|---------------------------------|-----------------------9-------|
4|---------------------------------|-------------------------------|
5|---------------------------------|-------------------------------|
6|---------------------------------|-------------------------------|
1 + 2 + 3 + 4 + 1 + 2 + 3 + 4 +

pm............... pm................
1|---------------------------------|-------------------------------|
2|-0---8---------------------------0---10--------------------------|
3|-0---9-------9-------9---9---9---0---11------11------11--11--11--|
4|---------------------------------|-------------------------------|
5|---------------------------------|-------------------------------|
6|---------------------------------|-------------------------------|
1 + 2 + 3 + 4 + 1 + 2 + 3 + 4 +

pm...............
1|-0---7---------------------------0---8-------0---10------\-------|
2|-0---8-------8-------8---8---8---0---10------0---12------\-------|
3|---------------------------------|-------------------------------|
4|---------------------------------|-------------------------------|
5|---------------------------------|-------------------------------|
6|---------------------------------|-------------------------------|
1 + 2 + 3 + 4 + 1 + 2 + 3 + 4 +

------
bridge
------

(0:47)

pm... pm... pm... pm... pm... pm


1|---------0-----------5-----------0-----------5-----------0-------|
2|-----3-----------3-----------3---|-------3-----------3-----------|
3|-4-----------4-----------4-------|---4-----------4-----------4---|
4|---------------------------------|-------------------------------|
5|---------------------------------|-------------------------------|
6|---------------------------------|-------------------------------|
1 + 2 + 3 + 4 + 1 + 2 + 3 + 4 +

pm pm... pm...
1|-----5-----------0-----------5---|-------0-----------------------|
2|-3-----------3-----------3---0---|-------0-----------------------|
3|---------4-----------4-----------|-------------------------------|
4|---------------------------------|-------------------------------|
5|---------------------------------|-------------------------------|
6|---------------------------------|-------------------------------|
1 + 2 + 3 + 4 + 1 + 2 + 3 + 4 +

-------
verse 2
-------

same guitar as verse 1.

------
bridge
------

repeat first bridge.

----------
1st chorus
----------

(1:14)
________________________________________________________________
/ x2
1|-0-------0-------0---0---0---2---|---0-------0-------0---0---0---|
2|-5-------5-------5---5---5---3---|---3-------3-------3---3---3/--|
3|-4-------4-------4---4---4---2---|---2-------2-------2---2---2/--|
4|---------------------------------|-------------------------------|
5|---------------------------------|-------------------------------|
6|---------------------------------|-------------------------------|
1 + 2 + 3 + 4 + 1 + 2 + 3 + 4 +
________________________________________________________________
\
1|-0-------0-------0---0---0---0---|---0---0-------0---0---0---0---|
2|-13------13------13--13--13--12--|---12--12------12--12--12--12\-|
3|-12------12------12--12--12--11--|---11--11------11--11--11--11\-|
4|---------------------------------|-------------------------------|
5|---------------------------------|-------------------------------|
6|---------------------------------|-------------------------------|
1 + 2 + 3 + 4 + 1 + 2 + 3 + 4 +

(1:28)

pm.......................................................
1|---------------------------------|-------------------------------|
2|---------------------------------|-------------------------------|
3|---------------------------------|-------------------------------|
4|---------------------------------|-------------------------------|
5|---------------------------------|-------------------------------|
6|-0---2---3---0---2---3---0---2---3---0---2---3---0---2---3-------|
1 + 2 + 3 + 4 + 1 + 2 + 3 + 4 +

_______________________________________________________________
/ x4 \
1|-0-------------------------------0-------------------------------|
2|-2-------------------------------0-------------------------------|
3|-2-------------------------------0-------------------------------|
4|-2-------------------------------2-------------------------------|
5|-0-------------------------------2-------------------------------|
6|---------------------------------0-------------------------------|
1 + 2 + 3 + 4 + 1 + 2 + 3 + 4 +

------
bridge
------

there are four bars without any guitar, followed by this:

(1:52)

1|---------------------------------|-------------------------------|
2|-x---x---x---x---------------x---x---x---x---x---x---x---x---x---|
3|-x---x---x---x---------------x---x---x---x---x---x---x---x---x---|
4|-x---x---x---x---------------x---x---x---x---x---x---x---x---x---|
5|---------------------------------|-------------------------------|
6|---------------------------------|-------------------------------|
1 + 2 + 3 + 4 + 1 + 2 + 3 + 4 +

pm...................
1|---------------------------------7---5---5---5---5---5---5---5---|
2|-8---x---0---8---x---x---x---x---8---7---7---7---7---7---7---7---|
3|-9---x---0---9---x---x---x---x---|-------------------------------|
4|---------------------------------|-------------------------------|
5|---------------------------------|-------------------------------|
6|---------------------------------|-------------------------------|
1 + 2 + 3 + 4 + 1 + 2 + 3 + 4 +

pm...................
1|-0---7---7---7---7---7---7---7---0---8---0---10------0---0---0---|
2|-0---8---8---8---8---8---8---8---0---10--0---12------0---0---0---|
3|---------------------------------|-------------------------------|
4|---------------------------------|-------------------------------|
5|---------------------------------|-------------------------------|
6|---------------------------------|-------------------------------|
1 + 2 + 3 + 4 + 1 + 2 + 3 + 4 +

(2:02)

1|---------------------------------|-------------------------------|
2|-0---0---8---0---0---8---0---0---10--0---0---10--0---0--10---0---|
3|-0---0---9---0---0---9---0---0---11--0---0---11--0---0--11---0---|
4|---------------------------------|-------------------------------|
5|---------------------------------|-------------------------------|
6|---------------------------------|-------------------------------|
1 + 2 + 3 + 4 + 1 + 2 + 3 + 4 +

1|---------------------------------|-------------------------------|
2|-12--12--12--12--12--12--12--12--13--13--0---15------15--0-------|
3|-12--12--12--12--12--12--12--12--14--14--0---16------16--0-------|
4|---------------------------------|-------------------------------|
5|---------------------------------|-------------------------------|
6|---------------------------------|-------------------------------|
1 + 2 + 3 + 4 + 1 + 2 + 3 + 4 +

(2:09)

1|-7-----------7\------------------7-----------7\------------------|
2|-8-----------8\------------------8-----------8\------------------|
3|-7-----------7\------------------7-----------7\------------------|
4|---------------------------------|-------------------------------|
5|---------------------------------|-------------------------------|
6|---------------------------------|-------------------------------|
1 + 2 + 3 + 4 + 1 + 2 + 3 + 4 +

1|-5-----------5\------------------4-----------4\------------------|
2|-6-----------6\------------------5-----------5\------------------|
3|-5-----------5\------------------4-----------4\------------------|
4|---------------------------------|-------------------------------|
5|---------------------------------|-------------------------------|
6|---------------------------------|-------------------------------|
1 + 2 + 3 + 4 + 1 + 2 + 3 + 4 +

1|-7-----------7\------------------7-----------7\------------------|
2|-8-----------8\------------------8-----------8\------------------|
3|-7-----------7\------------------7-----------7\------------------|
4|---------------------------------|-------------------------------|
5|---------------------------------|-------------------------------|
6|---------------------------------|-------------------------------|
1 + 2 + 3 + 4 + 1 + 2 + 3 + 4 +

1|-5-----------5\------------------|---0---------------------------|
2|-6-----------6\------------------|---------------4---------------|
3|-5-----------5\------------------|-----------4-------4-----------|
4|---------------------------------|-------------------------------|
5|---------------------------------2---------------------------2---|
6|---------------------------------|-------------------------------|
1 + 2 + 3 + 4 + 1 + 2 + 3 + 4 +

1|---------------------------------|---0---0---0---0---0---0---0---|
2|-4---4-----------4---4-----------4---4---4---4---4---4---4---4---|
3|-4---4-----------4---4-----------4---4---4---4---4---4---4---4---|
4|---------------------------------|-------------------------------|
5|-------------2---------------2---|-------------------------------|
6|---------------------------------|-------------------------------|
1 + 2 + 3 + 4 + 1 + 2 + 3 + 4 +

1|-0---0---0---0---0---0---0---0---|
2|-4---4---4---4---4---4---4---4---|
3|-4---4---4---4---4---4---4---4---|
4|---------------------------------|
5|---------------------------------|
6|---------------------------------|
1 + 2 + 3 + 4 +

----------
2nd chorus
----------

(2:27)
________________________________________________________________
/ x4
1|-0-------0-------0---0---0---2---|---0-------0-------0---0---0---|
2|-5-------5-------5---5---5---3---|---3-------3-------3---3---3/--|
3|-4-------4-------4---4---4---2---|---2-------2-------2---2---2/--|
4|---------------------------------|-------------------------------|
5|---------------------------------|-------------------------------|
6|---------------------------------|-------------------------------|
1 + 2 + 3 + 4 + 1 + 2 + 3 + 4 +
________________________________________________________________
\
1|-0---0---0---0---0---0---0---0---0---0---0---0---0---0---0---0---|
2|-13--13--13--13--13--13--13--12--12--12--12--12--12--12--12--12\-|
3|-12--12--12--12--12--12--12--11--11--11--11--11--11--11--11--11\-|
4|---------------------------------|-------------------------------|
5|---------------------------------|-------------------------------|
6|---------------------------------|-------------------------------|
1 + 2 + 3 + 4 + 1 + 2 + 3 + 4 +

----
solo
----

(2:54)

with slide......................................................
1|---------------------------------|-------23-\21--23-\21----------|
2|---------------------------------|-------------------------------|
3|---------------------------------|-------------------------------|
4|---------------------------------|-------------------------------|
5|---------------------------------|-------------------------------|
6|-23-\21--23-\21--23-\21--23-\21--23-\21------------------23-\21--|
1 + 2 + 3 + 4 + 1 + 2 + 3 + 4 +

.................................................................
1|---------------------------------|-----------------------23-\21--|
2|---------------------------------|-------------------------------|
3|---------------------------------|-------------------------------|
4|---------------------------------|-------------------------------|
5|---------------------------------|-------------------------------|
6|-23-\21--23-\21--23-\21--23-\21--23-\21--23-\21--23-\21----------|
1 + 2 + 3 + 4 + 1 + 2 + 3 + 4 +

.................................................................
1|---------------------------------|-------------------------------|
2|---------------------------------|-------------------------------|
3|---------------------------------|-------------------------------|
4|---------------------------------|-------------------------------|
5|---------------------------------|-------------------------------|
6|-23-\21--23-\21--23-\21--23-\21--23-\21--23-\21--23-\21--23-\21--|
1 + 2 + 3 + 4 + 1 + 2 + 3 + 4 +

(3:07)
..................................................
1|---------------------------------|-----------------------0---0---|
2|---------------------------------|-------------------------------|
3|---------------------------------|-------------------------------|
4|---------------------------------|-------------------------------|
5|-20.5\19-20.5\19-21-\19--21-\19--22.5~~~-----21~~~---------------|
6|---------------------------------|-------------------------------|
1 + 2 + 3 + 4 + 1 + 2 + 3 + 4 +

1|-15--0---0---12--0---0---17--0---0---15--0---19--0---15--0---17--|
2|---------------------------------|-------------------------------|
3|---------------------------------|-------------------------------|
4|---------------------------------|-------------------------------|
5|---------------------------------|-------------------------------|
6|---------------------------------|-------------------------------|
1 + 2 + 3 + 4 + 1 + 2 + 3 + 4 +

1|-0---14--0---12------0---0---0---9---0---0---7---0---15--0---0---|
2|---------------------------------|-------------------------------|
3|---------------------------------|-------------------------------|
4|---------------------------------|-------------------------------|
5|---------------------------------|-------------------------------|
6|---------------------------------|-------------------------------|
1 + 2 + 3 + 4 + 1 + 2 + 3 + 4 +

1|-15--0---0---12--------------0---17--0-------17--0---19--0-------|
2|---------------------15-/17------|-------17------------------17--|
3|---------------------------------|-------------------------------|
4|---------------------------------|-------------------------------|
5|---------------------------------|-------------------------------|
6|---------------------------------|-------------------------------|
1 + 2 + 3 + 4 + 1 + 2 + 3 + 4 +

1|-19--19------20--20--20--20--21b-|-21b---21b---21b---21b---21b---|
2|---------------------------------|-------------------------------|
3|---------------------------------|-------------------------------|
4|---------------------------------|-------------------------------|
5|---------------------------------|-------------------------------|
6|---------------------------------|-------------------------------|
1 + 2 + 3 + 4 + 1 + 2 + 3 + 4 +

----------
3rd chorus
----------

repeat the 1st chorus.

------
ending
------

there are six bars with no guitar, then this:

(4:02)
pm... pm... pm...
1|---------------------------------|-------0-----------5-----------|
2|---------------------------------|---3-----------3-----------3---|
3|-------------9---9---9\----------4-----------4-----------4-------|
4|---------------------------------|-------------------------------|
5|---------------------------------|-------------------------------|
6|---------------------------------|-------------------------------|
1 + 2 + 3 + 4 + 1 + 2 + 3 + 4 +

pm... pm... pm... pm... pm...


1|-0-----------5-----------0-------|---5-----------0-----------5---|
2|---------3-----------3-----------3-----------3-----------3-------|
3|-----4-----------4-----------4---|-------4-----------4-----------|
4|---------------------------------|-------------------------------|
5|---------------------------------|-------------------------------|
6|---------------------------------|-------------------------------|
1 + 2 + 3 + 4 + 1 + 2 + 3 + 4 +

pm... pm... pm...


1|---------0-----------5-----------0-----------5-----------0-------|
2|-----3-----------3-----------3---3-----------3-----------3-------|
3|-4-----------4-----------4-------|-------------------------------|
4|---------------------------------|-------------------------------|
5|---------------------------------|-------------------------------|
6|---------------------------------|-------------------------------|
1 + 2 + 3 + 4 + 1 + 2 + 3 + 4 +

1|-----5-----------0-------5-------|-------------------------------||
2|-----3-----------3-------3------<12>-----------------------------||
3|--------------------------------<12>-----------------------------||
4|--------------------------------<12>-----------------------------||
5|---------------------------------|-------------------------------||
6|---------------------------------|-------------------------------||
1 + 2 + 3 + 4 + 1 + 2 + 3 + 4 +

twilight
u2

tune down 1/2 step


verse
x24 i look into his eyes... n.h.(natural harmonics)
|-------0-------5--|--0--5--0--|--0--3--0--5--0--7--0--5-|--12----|
|---0-3-----0-3----|--0--0-----|--0-----0-----0-----0----|----12--|
|*----------------*|-----------|-------------------------|--------|
|*----------------*|-----------|-------------------------|--------|
|------------------|-----------|-------------------------|--------|
|------------------|-----------|-------------------------|--------|

|--0--3--0--5--0--7--0--8--8--10--|
|--0-----0-----0-----0------------|
|---------------------------------|
|---------------------------------| after verse play intro again, then
|---------------------------------| verse again
|---------------------------------|

chorus
twilight....

|---0---|---2---|---3---|---2---|--------------|--------------|
|---0---|---0---|---0---|---0---|--------------|--------------|
|*--0---|---2---|---4---|---2--*|*------------*|--------------|
|*------|-------|-------|------*|*------------*|--------------|
|-------|-------|-------|-------|--------------|--------------|
|-------|-------|-------|-------|--0-2-3-0-2-3-|--0-2-3-0-2-3-|

in the shadows, boy meets man

|------0------|-------3------|
|------2------|-------3------|
|*-----2------|-------0-----*| this song isn't completely laid
|*-----2------|-------0-----*| out in perfect order and solo
|------0------|-------2------| is missing...but this is the
|-------------|-------3------| basic song...check back later
and the solo might be here too.

**********************************************************************************
***
**********************************************************************************
***
"sunday bloody sunday"

riff [a]
bm d g
---------2----------2----------0----------0-----
------3----3----3----2-----3---3-----3----3---
---4----------2----------0---------0----------0-

solo (this is the basic structure...listen to war and you'll hear it...most
of the notes havce an open string above or below it but i'm too lazy to tab
it out...):

e-12-12-12-10-10---12-12-12-10-10-
b------------------------------------------------

e------------------------------------------------
b-12-12-12-10-10---12-12-12-10-10-

e------------------------------------------------
b-10-10-10--8--8--8--7--7--7--5--5--5-

e------------------------------------------------
b-3--3--5--3--2--0--------------------------

e-------------------------------------------------
b---0-2-3-2-3-5-3-5-7-5-7-8-7-8-10-8-
g-2----------------------------------------------

e---10-10--9--------------------------------
b-10-12-10-12------------10-12-12---

(intro-riff a)
bm d g
i can't believe the news today
oh, i can't close my eyes and make it go away
d
how long?
em
how long must we sing this song?
d em
how long, how long?
b d g
'cause tonight we can be as one, tonight!
broken bottles under children's feet
bodies strewn across the dead-end street
but i won't heed the battle call
it puts my back up against the wall

sunday, bloody sunday


sunday, bloody sunday

and the battle's just begun


there's many lost, but tell me who has won?
the trenches dug within our hearts
and mother's children, brothers, sisters torn apart

sunday, bloody sunday


sunday, bloody sunday

wipe the tears from your eyes


wipe your tears away
wipe your bloodshot eyes

sunday, bloody sunday


sunday, bloody sunday

and it's true we are immune


when fact is fiction and t.v. is reality
and today the millions cry
we eat and drink while tomorrow they die
the real battle just begun
to claim the victory jesus won,
on sunday, bloody sunday
sunday, bloody sunday...

during the b d g progression, you can add


in an a at the end to make it sound cool...

**********************************************************************************
***
**********************************************************************************
***

coldplay chords - violet hill

chords: bm, g, em, a, f#m, d

version 1:
bm
was a long and dark december

from the rooftops i remember


g em
there was snow, white snow
bm
clearly i remember from the windows
g
they were watching while we froze
em
down below

chorus:
g
when the future architecture
a bm
by a carnival of idiots on show
a
you better lie low
g d bm em a bm
if you love me, won�t you let me know

version 2:
bm
was a long and dark december
when the banks became cathedrals
g em
and the frost became gone
bm
creased cut stones and bibles
are all out to fade their rifles
g em
and the cross was held aloft

chorus:
g
there in me and i�m�
a
when i�m dead and hit the ground
bm a
legs are cold, unfold
g d bm em a bm
if you love me, won�t you let me know

guitar solo:

bm bm g em x2

chorus:
g
i don�t wanna be a soldier
a
with a captain of some sinking ship
bm
with snow
a
far below
g d bm em a bm
so, if you love me, why�d you let me go

outro:
d g f#m g
i took my love down to violet hill
bm em g
there we sat in snow
bm em g f#m
all that time she was silenced still
d g d bm em a bm em
so, if you love me, won�t you let me know?
d g d bm em a bm
if you love me, won�t you let me know?

**********************************************************************************
***
**********************************************************************************
***
"paranoid android" by radiohead
from "ok computer".

j.g. - jon greenwood's guitar parts


/-bendup one tone _ /(.5)above-bendup semitone \-release
/\-bend&release
\ / (sl.)-slide \-slide without hitting second note
riff 1
[______repeat_______________]
e-----------------------------------------------------------------------
b------8----------8--------8-----------3--------3-----3------3----------
g-------8----------8--------8------------3-------3-----3-----3----------
d--------------------------------------------------2-2---2-2------------
a----------------------8-8----0-0----------0-0-1------------------------
e--8-8----8-6-6-6----6------------6-3-3---------------------------------

its good of you to stop the noise im tryna get some rest....
j.g .5 .5
e-----------------------------------------------------------------------
b-15--15----15--15---15------15-------3--3---3--3---3----3-4----3/-3/\-3
g---15--15----15--14---12-12---15-------3--3---3--2---0-0---------------
d-----------------------------------------------------------------------
a-----------------------------------------------------------------------
e-----------------------------------------------------------------------
riff 2 x2
e-----------------------------------------------------------------------
b------3-3-3-3----3-3-3-3------3-3-3-3----3-3-3-3-----3-3-3-3---3-3-3-3-
g------3-3-3-3----3-3-3-3------0-0-0-0----0-0-0-0-----1-1-1-1---1-1-1-1-
d------0-0-0-0----0-0-0-0--3-3-3-3-3-3-3-3------------2-2-2-2---2-2-2-2-
a--------------------------3-3---------3-3---------2-2--------2-2-------
e--3-3---------3-3---------1-1---------1-1---------0-0--------0-0-------

whats this? whats this?.............

riff 3---------------]
e------------------------------------------------------------------------
b------------------------------------------------------------------------
g------------------------------------------------------------------------
d------------------------------------------------------------------------
a-0-0-0-3-0-------3-5-0-0-0-3-0---5-3-0-5-5-3----------------------------
e-----------4-4-4---------------4----------------------------------------

riff 4
e-----------------------]-----------------------------------------------
b--8--8--8--8--8-4-6-6--]------8-7-6------------------------------------
g--0--0--0-10--0-0-0-0---------9-8-7------------------------------------
d--9--9--9--9--9-5-7-7--------------------------------------------------
a-10-10-10-10-10-6-8-8--]-----10-9-8------------------------------------
e-----------------------------------------------------------------------
j.g.
trem trem [-----x4---] sl.
e-20-----20/--20------20----20-17--17-20-20-20-20-20-20-----------------
b------------------------17---------------------------------------------
g-17-----17/--17--------------------------------------------------------
d-----------------------------------------------------------------------
a-----------------------------------------------------------------------
e-------------------------------------------------------18\-------------

e-----------------------------------------------------------------------
b-8h10-10/\-10/\-8-9h11-11/\-9-8h10-10/\-10/\-8-9\7-7\5-4\2-8h10-10/\-10/\
g-----------------------------------------------------------------------
d-----------------------------------------------------------------------
a-----------------------------------------------------------------------
e-----------------------------------------------------------------------

e------------0----------------------------------------------------------
b-8-10-9-8-7-2----------------------------------------------------------
g------------2----------------------------------------------------------
d------------2----------------------------------------------------------
a------------0----------------------------------------------------------
e-----------------------------------------------------------------------

riff 5 dm a
e------3--3-3------------------------------------------------------------
b------4--4-4-----4--4-4-----6--6-6-----5--5-5-----6--6-6-----5--5-5-----
g--0-0-0--0-0-----0--0-0-7-7-7--7-7-6-6-6--6-6-7-7-7--7-7-----6--6-6-----
d-------------0-0----0-------------------------7-7-7--7-7-7-7----7-7-----
a--3-3-------------------8-8--------7-7--------5-5--------7-7------------
e-------------3-3-----------------------------------------5-5------------

rain down, rain dowm ,............................

dm ? bb a g f
e------------------------------------------------------------------------
b-----6--6-6------6--6-6---------6-6-----5--5-5--------3----------1------
g-7-7-7--7-7--7-7-7--7-7------7--7-7-----6--6-6-----4--4-4-----2--2-2----
d-7-7-7--7-7--------------8-8-8--8-8-7-7-7--7-7-5-5-5--5-5-3-3-3--3-3----
a-5-5---------8-8------8--8-8-8----8-7-7--------5-5-5----5-3-3-3----3----
e-------------------------6-6--------5-5--------3-3--------1-1-----------

e a
e----------------------0-0-0-0--------]----------------------------------
b------0-0-0-0-0--2----2-2-2-2-2------]----------------------------------
g---1--1-1-1-1-1--2-2--2-2-2-2-2------]----------------------------------
d-2-2--2-2-2-2-2--2-2--2-2-2-2-2------]----------------------------------
a-2-2--2---2-2-2--0-0-----------------]----------------------------------
e-0-----------------------------------]----------------------------------
the strum pattern changes every so often for this so just do whatever
its not very important.

[-----x4----] grad. slide up


e-9----------------------------------------------------------------------
b--8--8-5------13--16--15--4--12-------13--16--15--4--12--12/------------
g---------8-5--15/-18/-17/-6/-14/------15/-18/-17/-6/-14/-14//-----------
d------------------------------------------------------------------------
a------------------------------------------------------------------------
e------------------------------------------------------------------------

e-----------------------------------------10-8-10/-10h8------------------
b-10-8-8-------10-8-----------10-8-8--------------------10-8-8-------10-8
g---------_--8------10/\-10h8---------_--8----------------------_--8-----
d--------8/9-------------------------8/9-----------------------8/9-------
a------------------------------------------------------------------------
e------------------------------------------------------------------------
c b bb a
e----------------------------------]-------------------------------------
b-----------10-8-8-----------------]-------------------------------------
g-10/\-10h8--------8-9---9-8-7-6---]-------------------------------------
d-----------------------10-9-8-7---]-------------------------------------
a-----------------------10-9-8-7---]-------------------------------------
e------------------------8-7-6-5---]-------------------------------------

-steven

---

i also got this ...


does anybody really know for sure about this song?

slight adjustment:

chord g/b: [x2003x]


dm/c [x30231]

cm g/b bb a dm a dm dm/c
rain down, rain down, come on rain down on me
bb am gm f e a
from a great height, from a great height, height

**********************************************************************************
***
**********************************************************************************
***
kenny rogers - lady

here's my version of "lady" by kenny rogers. i do believe his was actually in dm.
you can capo up 3 frets if you want his key. lady written by lionel ritchie
recorded by kenny rogers

(bm)lady i'm your (g)knight in shining armor and i (bm)love,


you have (g)made me what i (a)am, and ……i am (bm)yours.

(bm)my love, there's so (g)many ways i (a)want to say i (bm)love you,

let me (g)hold you in my (a)arms for ever (bm)more.

you have (g)gone and (f#m)made me such a fool, (g)i'm so lost (a)lost in (d)your
love.

and (g)oh, we (f#m)belong together, (g)won't you be(a)lieve in my (b)song.

(bm)lady, for so (g)many years i (a)thought i'd never (bm)find you,

you have (g)come into my (a)life and made me (bm)whole.

whatever, let me (g)wake to see you (a)each and every (bm)morning,

let me (g)hear you whisper (a)softly in my (bm)ear.

in my (g)eyes i see (f#m)no one else but you….(g)there's no (a)other love like
(d)our love.

and (g)yes, oh yes i'll (f#m)always want you near me…..(g)i've waited for (a)you
for so (b)long.

(g)lady……(a)your love's the (d)only love i need. (d7)


and (g)beside me (a)is where (d)i want you to be. (d7)

'cause (g)my love (a)there's something (d)i want you to (bm)know,

you're the (g)love of my life….(a).you're my (bm)lady,

and i'm you (g)knight in shining (a)armor and i love (bm)you.


**********************************************************************************
***
**********************************************************************************
***

wolf mother
wolfmother / minds eye

intro
e|-----12----12----12----12----12----12----12----12--|
b|--13----13----13----13----12----12----12----12-----|
g|---------------------------------------------------|
d|---------------------------------------------------|
a|---------------------------------------------------|
e|---------------------------------------------------|

e|-----12----12---12----12----12----12----12----12---|
b|--10----10---10----10----10----10----10----10------|
g|---------------------------------------------------|
d|---------------------------------------------------|
a|---------------------------------------------------|
e|---------------------------------------------------|

verse
e|--0----0----x----|
b|--1----0----x----|
g|--2----0----2----|
d|--2----2----3----|
a|--0----3----3----|
e|--x----x----1----|

bridge
e|--------------------------------|
b|--------------------------------|
g|--------------------------------|
d|---------------------10-12--14--|
a|--3--5--7--9--10-12--8--10--12--|
e|--1--3--5--7--8--10-------------|

chorus
e|---------------------------------------|
b|---------------------------------------|
g|-----------7----5~~~~~~~~7-------------|
d|--7~~~~~~~~7----5~~~~~~~~7----7~~~~~~~~|
a|--7~~~~~~~~5----3~~~~~~~~5----7~~~~~~~~|
e|--5~~~~~~~~-------------------5~~~~~~~~|

organ solo (transcribed for guitar, andrew plays the same as chorus)
e|--------------------------------------------------------------------------------
-------|
b|--5p2--5p2--5p2--5p2--5p2--5p2--10p7--10p7--8p5--8p5--8p5--8p5--8p5--8p5--10p7--
10p7---|
g|-----2----2----2----2----2----2-----7-----7----5----5----5----5----5----5-----
7-----7--|
d|--------------------------------------------------------------------------------
-------|
a|--------------------------------------------------------------------------------
-------|
e|--------------------------------------------------------------------------------
-------|

**********************************************************************************
***
**********************************************************************************
***
artist: wolfmother
song: woman
album: wolfmother ep
tuning: standard (low to high - eadgbe)

key:
h = hammer on
p = pull off
| = barline
|| = double barline - end of section/passage
~ = sustain

intro/verses:
e|----------------------|---------------------|---------------------|-------||
b|----------------------|---------------------|---------------------|-------||
g|----------------------|---------------------|---------------------|-------||
d|----------------------|---------------------|---------------------|7----5-||
a|----------------------|---------------------|---------------------|7----5-||
e|-0--0-0--0-0--0-5h7-7-|0--0-0--0-0--0-5h7-7-|0--0-0--0-0--0-5h7-7-|5----3-||

chorus:
e|----|----|----|----|----|-----|---||
b|----|----|----|----|----|-----|---||
g|----|----|----|----|----|-----|---||
d|-7--|-10-|-7--|-10-|-9--|-12~~|~~-||
a|-7--|-10-|-7--|-10-|-9--|-12~~|~~-||
e|-5--|-8--|-5--|-8--|-7--|-10~~|~~-||

bridge:
e|----------------------|----------------------||
b|----------------------|----------------------||
g|----------------------|----------------------||
d|-2p0---0--------------|-2p0---0--------------||
a|-----2---2-0-2-0---0--|-----2---2-0-2-0------||
e|-----------------3----|-----------------3-0--||x4

e|-------------------|------------------||
b|-------------------|------------------||
g|-------------------|------------------||
d|-------------------|------------------||
a|-------5~-------5~-|------5~-------7~-||
e|-0h5h7----0h5h7----|0h5h7----0h5h7----||x2

solo:
keyboard:
e|-------------------|------------------|
b|------7-7~-----7-7~|-----7-7~------9~-|
g|------7-7~-----7-7~|-----7-7~------9~-|
d|------7-7~-----7-7~|-----7-7~------9~-|
a|-------------------|------------------|
e|-------------------|------------------|
| | |
|gtr: | |
e|-------------------|------------------|
b|-------------------|------------------|
g|-------------------|------------------|
d|-------------------|------------------|
a|-------5~-------5~-|------5~-------7~-|
e|-0h5h7----0h5h7----|0h5h7----0h5h7----|x2

(this part is too noisy, just doodle around a high e)


e|-------------------|------------------|
b|-17---17---17--17--|-17--17--17--17---|
g|-16---16---16--16--|-16--16--16--16---|
d|-14---14---14--14--|-14--14--14--14---|
a|-------------------|------------------|
e|-------------------|------------------|
| | |
|gtr: | |
e|-------------------|------------------|
b|-------------------|------------------|
g|-------------------|------------------|
d|-------------------|------------------|
a|-------5~-------5~-|------5~-------7~-|
e|-0h5h7----0h5h7----|0h5h7----0h5h7----|x2

e|-19---19---19--19----19--17--17--16---||
b|-------------------|------------------||
g|-16---16---16--16--|-16--16--16--16---||
d|-14---14---14--14--|-14--14--14--14---||
a|-------------------|------------------||
e|-------------------|------------------||
| | ||
|gtr: | ||
e|-------------------|------------------||
b|-------------------|------------------||
g|-------------------|------------------||
d|-------------------|------------------||
a|-------5~-------5~-|------5~-------7~-||
e|-0h5h7----0h5h7----|0h5h7----0h5h7----||x2

pre verse:
e|----------------------|--------||
b|----------------------|--------||
g|----------------------|--------||
d|-2p0---0--------------|-7---5--||
a|-----2---2-0-2-0---0--|-7---5--||
e|-----------------3----|-5---3--||