You are on page 1of 34

Guitar Tabs

PAL PAL HAR PAL:G|----2--0-2-0-0-2-0--D|--0---------------------A|-3----------------------Pal pal pal palll har pal har pal..

G|-2-0--------0------0-------0------D|-------3-0----3-3-----3-3----3---Kaise katega pal har pal

G|----2--0-2-0-0-2-0--D|--0---------------------A|-3----------------------Pal pal pal palll har pal har pal..

G|-2-0--------0------0-------0------D|-------3-0----3-3-----3-3----3---Kaise katega pal har pal har pal..

B|------------1--------1-----G|----0-2-3-3---3---3----3--D|-3-----------------------------Dil dil dil dill mein machi hai machi

B|-1-----------------------------G|---3-2-0-3-2-2-3-2-2-3-2--Machi hai hulchul hulchul hulchul

G|-3--2-0----2--0--0-2-0-0-2-0-D|---------3------------------------Kaise katega pal har pal har pal

G|--2--0------0-------0----------D|--------3-0----3-3----3--0----A|-----------------------------3Kaise katega pal har pal har pal

G|----2--0-2-0-0-2-0--D|--0---------------------A|-3----------------------Pal pal pal palll har pal har pal..

G|-2-0--------0------0-------0------D|-------3-0----3-3-----3-3----3---Kaise katega pal har pal har pal..

G|----2--0-2-0-0-2-0--D|--0---------------------A|-3-----------------------

han han han han ha ha ha

G|-2-0--------0------0-------0------D|-------3-0----3-3-----3-3----3---la la la la la la laaa laaa

G|----0-2-0---0---2-3--2--D|-3--------------------------O hum saafar Lagta hai daaar

G|----0-2-0------------0-----D|-3----------3-2--0-0---2-3-Raat katena kabhi ho seher

G|----0-2-0---0---2-3--2--D|-3--------------------------Is pal mein simete umar

G|----0-2-0------------0-----D|-3----------3-2--0-0---2-3-Raat katena kabhi ho sehar

[REST ARE SAME]

KYA HUWA TERA VAADA :-

B|---1----------1---1--3----3------------1-G|-2---3--2-0-2---2------------3--2-0-2----Kya hua tera waada Woh kasam, woh iraada

G|-----------------------2D|-2-2-2-3-----3-2-3---3--A|----------3-----------Bhoolega dil jis din tumhe

G|----0--2--0-0-0-0----0-2-0--0-2-3-2-2-2-D|-3--------------------------------------Woh din zindagi ka aakhri din hoga

B|---1----------1---1--3----3------------1-G|-2---3--2-0-2---2------------3--2-0-2----Kya hua tera waada Woh kasam, woh iraada

e|-1-1--0---------1-1--0---------B|---------3-3-3-----------3-3-3-Yaad hai mujhko tune kaha tha

e|------0-------0-----------0-------B|-3-3----1-3-----3-1--1-3----3-1-1---

Tumse nahin roothenge kabhi

e|-1-1--0---------1-1--0---------B|---------3-3-3-----------3-3-3-Dil ki tarah se haath mile hain

e|-----0-------0------------0-----B|-3-3----1-3-----3-1--1-3----3-1-1--Kaise bhala chhootenge kabhi

B|---1------------------------G|-2---3-0-3-2---2-0---0--D|-------------3-----3-----Teri baahon mein beeti har shyaam

G|-3-2-3---2-0-2--------------D|------------------3-2-0-2-3-Bewafa yeh bhi kya yaad nahin

B|---1----------1---1--3----3------------1-G|-2---3--2-0-2---2------------3--2-0-2----Kya hua tera waada Woh kasam, woh iraada

G|-----------------------2----D|-2-2-2-3-----3-2-3---3---

A|----------3----------------Bhoolega dil jis din tumhe

G|----0--2--0-0-0-0----0-2-0--0-2-3-2-2-2-D|-3--------------------------------------Woh din zindagi ka aakhri din hoga

B|---1----------1---1--3----3------------1-G|-2---3--2-0-2---2------------3--2-0-2----Kya hua tera waada Woh kasam, woh iraada

[REST ARE SAME]

GULABI ANKHE :B|-----------1-1-1-0-1-3-0-0------0-1----------0-G|----------------------------2--------2-1-2----D|-2-2-2-2-------------------------------------------Gulaabi aankhen jo teri dekhi, Sharaabi yeh dil ho gaya

B|-----------1-1-1-0-1-3-0-0------0-1----------0-G|-----------------------------2--------2-1-2----D|-2-2-2-2-------------------------------------------Sambhaalo mujhko o mere yaaron, Sambhalna mushkil ho gaya

B|-----0------------0-------G|---1----------1------------

D|-2------2-2----------3---Dil mein mere khwaab tere

B|----------1-0-------------------------G|----0-2-------2-0-------0-----------D|-3------------------3-3-----3-2-3---Bas tere jaise ho deewaar pe

B|-----0------------0-------G|---1----------1-----------D|-2------2-2----------3---Tujhpe fida main kyoon hua

B|----------1-0-------------------------G|----0-2-------2-0-------0-----------D|-3------------------3-3-----3-2-3---Aata hai gussa mujhe pyaar pe

e|----------0---B|-0-1-3------Main lut gaya

e|-1-0-1-0---------------B|------------3-1-0-1-3-maanke dil ka kaha

e|-1-0-1-0---------------B|------------3-1-0-1-3-Main kahin tha na raha

e|-1-0-1-0---------------B|------------3-1-0-1-3-Kya kahoon main dilruba

B|-----------1-1-1-0-1-3-0-0------0-1----------0-G|----------------------------2--------2-1-2----D|-2-2-2-2-------------------------------------------Pura yeh jaadu teri aankhon ka, Yeh mera kaatil ho gaya

B|-----------1-1-1-0-1-3-0-0------0-1----------0-G|-----------------------------2--------2-1-2----D|-2-2-2-2-------------------------------------------Gulaabi aankhen jo teri dekhi, Sharaabi yeh dil ho gaya

B|-----0------------0-------G|---1----------1-----------D|-2------2-2----------3---Maine sada chaaha yehi

B|---------1-0--------------------------

G|----0-2-------2-0-------0-----------D|-3-----------------3-3-----3-2-3---Daaman bacha loon haseenon se main

B|-----0------------0-------G|---1----------1-----------D|-2------2-2----------3---Teri kasam khwaabon mein bhi

B|---------1-0-------------------------G|----0-2-------2-0-------0-----------D|-3-----------------3-3-----3-2-3---Bachta fida naazneenon se main

e|----------0---B|-0-1-3------Tauba magar

e|-1-0-1-0---------------B|------------3-1-0-1-3-mil gayi tujhse nazar

e|-0---0---------------------B|---3----3-1-0----0-1-----G|---------------2-----------

Mil gaya dard-e-jigar

B|-3-1-3-1-0---------0----G|------------2-1-2-------Sun zara o bekhabar

B|-----------1-1-1-0-1-3-0-0------0-1----------0-G|-----------------------------2--------2-1-2----D|-2-2-2-2-------------------------------------------Zara sa haske jo dekha tune, Main tera bismil ho gaya

B|-----------1-1-1-0-1-3-0-0------0-1----------0-G|-----------------------------2--------2-1-2----D|-2-2-2-2-------------------------------------------Gulaabi aankhen jo teri dekhi, Sharaabi yeh dil ho gaya

B|-----------1-1-1-0-1-3-0-0------0-1----------0-G|-----------------------------2--------2-1-2----D|-2-2-2-2-------------------------------------------Sambhaalo mujhko o mere yaaron, Sambhalna mushkil ho gaya

PEHLI NAZAR ME:E -7-7----------------------------B -----8--10-10--7-7--8-8--7-7----G ------------------------------9-Pehli nazar mein Kaise jaado kar diya
E -7-7-10--7---------7------------

B -----------10-10-----10-10--8-Tera pan baita hai Mera jiya


E -7-7----------------------------B -----8--10-10--7--8-8--7-7----G ----------------------------9-Jaane kya hoga Kya hoga kya pata
E -7-7-10--7--------7-----------B -----------10-10-----10-10--8-Is pal ko milkeAa jee le zara
E -10--8--7------10--8--7---B ----------8-------------8-Mein hoon yahan Tu hai yahan
E---------7-----8--7-------------B -8--10--------------8---8-7-8--Meri bahon mein aa Aa bhi ja
E -10--14-14--10---10--8--7-B----------------------------8
O jaan-e-jaan Dono jahan
E---------7-----8--7-------------B -8--10--------------8---8-7-8--Meri bahon mein aa Bhoola ja
E -10--14-14--10---10--8--7-B----------------------------8
O jaan-e-jaan Dono jahan
E---------7-----8--7-------------B -8--10--------------8---8-7-8--Meri bahon mein aa Aa bhi ja

CHAND MERA DIL :E----------0------------------------------------------B------------1-0---------------------------------------G-----0-2--------0-2-0-----------------------------------D-0-2------------------2---------------------------------

A------------------------2-3-0--------------------------E-----------------------------------------------------

PINK PANTHER:E=0-5-7-0-5-7-6-0-5-7-6

DHOOM 2 WHISTLE :-----12-12-10-10-13-10-12-12-10-10-13-10-12-12-10-10-13-12---------

TU HI MERI SHAB HAI :tu hi meri shab hai subha hai tu hi din hai mera
S R G R S R S n p n nS S R G R S n S
tu hi mera rab hai jahaan hai tu hi meri duniya
S R G R S R S n p n nS S R G R S n SRS
tu waqt mere liye.e.e.e main hoon tera lamha
.
P P P P P P MN S N D P P P P M MPDP
kaise rahega bhala.a.a.a. hoke tu mujhse judaa
.
P P P P P M MN S N D P P P P M M M PDP

o o o o o o.o o o o o o o o
GMPMGMP GMPMGRS
---------aankhon se padhke tujhe dil pe maine likha
G~R S~n3 n3~p p p R R R R G MPSS S S
tu ban gaya hai mere jeene ki ek wajah
GR Sn3 n3pp R R R R G M MP S S
O aankhon se padhke tujhe dil pe maine likha
G RMGR~S S p p R R R R G MPMP~S S S

tu ban gaya hai mereeee jeene ki ek wajah


GR Sn3 n3pp R GMMPMGR R G M PP D PMP

teri hasiiiii teri adaaaaaa auron se hai bilkul judaa


.
.
P P S D2ND2P P P SD2 P PMMPD P MGMR R G MPMP
<o o o o....>

DIL KEH RAHA HAI :-

E--8-7-5-7-5-3--B
Dil keh raha hain
E--3-3-5-7-5-3--B------------------5Tujse yu rishdha
E----3-2------------B--5-----------------jod lu.........
E-----3-5-5-5-3-7-5-B---5-------------------Teri dhadkhano ke chulu
E--5-7-5-5-5-3---3--B-----------------5-----tera jism odh lu........
[repeat the stanza three times]
E--7-5-3-7-5-3-7-5-3-----5B-------------------------5-5--Ankhon hai teri hain mara yeh chehra
E--3-5-7-5-3-0--0-5-3--B---------------5----------chahe to yeh maane ya na maane
[repeat two times]

ARE RE ARE YE KYA HUWA :E|------------------7----5------------|


B|-----5--7-8--5-5----------8--7---|
G|-------------------------------------|
Are Re Are Yeh Kya Hua
E|---------------------8-7------------|
B|------5--7---8--5-5---------------|
G|-------------------------------------|
Maine Na Yeh Jaana
E|------------------7----5------------|
B|-----5--7-8--5-5----------8--7---|
G|-------------------------------------|
Are Re Are Yeh Kya Hua
E|-------------5----------------------|
B|--------7--8---7---8-7--5--------|
G|------------------------------------|
Kahin Koi Afsaana
E|---------7----5-7--5---------------|
B|----5-8--------------8-7-----------|
G|-------------------------------------|
Baat Kuch Hoti Rahe
E|------------7---10------------------|
B|---------8---------10---------------|
G|-------9-----------------------------|
Baat Jab Tak Ho

E|----------------12-10/12---10--7-----|
B|-------12-12-12--------------------8--|
G|------------------------------------------|
Samne Baithe Raho Tum
E|-----7--5-7-5--------------5---------|
B|---8----------8--7-----------8-7--5-|
G|----------------------------------------|
Raat Jab Tak Ho

E|------------------7----5------------|
B|-----5--7-8--5-5----------8--7---|
G|-------------------------------------|
Are Re Are Yeh Kya Hua

AATE JATE JO MILTA HAI :e------------2-2-3--------2-2-3--------2-2-3--5-7--5-3-2-0


B--------3-------------3--------------3------------e------------4-4-5--------4-4-5-------4-4-5-7-9--7-5-2-3
B--------5-------------5--------------5------------e----3-3-3-3--------------------------------------------------------B--------------5757-3----33-7--888-5--757---3---33-788

AAO OO NA:B ---1-----------3--G 0----2~---0------2~


B ----1--3~-1-0---------1-0-2-0-1---------------G -0----------------------------------B ---1-----------3--G 0----2~---0------2~
Thanks for playing

ESCAPE:m = stroke down


v = stroke up
INTRO
e|------------------------------------------------------|
B|------------------------------------------------------|
G|------4---4---4-------4---4-----3---------------------|
D|----4---4---2---2-----------------4-------------------|
A|--2-----------------6---6-----------------------------|
E|------------------4-----------2-----------------------|
e|------------------------------------------------------|

B|------------------------------------------------------|
G|------4---44--4-------4---------33--------------------|
D|----4---4----2--------------------4-------------------|
A|--2-----------------6---6--22-------------------------|
E|------------------4-----------2-----------------------|
Verse
e|------------------------------------------------------|
B|------------------------------------------------------|
G|------4---44--4-------4---------33--------------------|
D|----4---4----2--------------------4-------------------|
A|--2-----------------6---6--22-------------------------|
E|------------------4-----------2-----------------------|
e|------------------------------------------------------|
B|------------------------------------------------------|
G|------4---4---4-------4---4-----3---------------------|
D|----4---4---2---2-----------------4-------------------|
A|--2-----------------6---6-----------------------------|
E|------------------4-----------2-----------------------|
e|------------------------------------------------------|
B|------------------------------------------------------|
G|------4---44--4-------4---------33--------------------|
D|----4---4----2--------------------4-------------------|
A|--2-----------------6---6--22-------------------------|
E|------------------4-----------2-----------------------|
e|------------------------------------------------------|
B|------------------------------------------------------|
G|------4---44--4-------4---------33--------------------|
D|----4---4----2--------------------4-------------------|
A|--2-----------------6---6--22-------------------------|
E|------------------4-----------2-----------------------|
e|------------------------------------------------------|
B|------------------------------------------------------|
G|------4---4---4-------4---4-----3---------------------|
D|----4---4---2---2-----------------4-------------------|
A|--2-----------------6---6-----------------------------|
E|------------------4-----------2-----------------------|

AISE NA MUJHE TUM DEKHO :E|----0-0---0---0-0---------------0-0-0-0-1-3--------------|


B|--3-----3---3---------------3-3--------------------------|
G|---------------------------------------------------------|
d e e d e d ee,
ddeeeefg
Aise Na Mujhe Tum Dekho, Seene Se Laga Loonga
E|-1-0---0-1-3-1-0---0-1-3------------3----1--1---0--0-----|
B|-----3-----------3--------------3-3----------------------|
G|---------------------------------------------------------|
f e d e f g f e d e f g,
ddg f f e e
Tumko Main Chura Loonga Tumse, Dil Mein Chhupa Loonga
E|-3-5--3-5------------------------------------------------|
B|---------------------------------------------------------|
G|---------------------------------------------------------|
ga ga
Hmm Hmm
E|--5-5-7-9--9--9--11-9-7-----7-9-12-12-7-10-9-------------|
B|---------------------------------------------------------|
G|---------------------------------------------------------|
a a b c# c# c# d c# b b c# e e b d c#
Tere Dil Se Ae Dilbar Dil Mera Kehta Hain
E|-5-5-7-9--9--9--10-9-7---------7-7-9--7-5--4-5-----------|
B|---------------------------------------------------------|
G|---------------------------------------------------------|
a a b c# c# c# d c# b
b b c# b a g# a
Pyar Ke Dushman Log Mujhe Dar Lagta Rehta Hain (X2)

E|-4--5---7---5--4--2--0------0--8-8-8---5-5---------------|
B|---------------------------------------------------------|
G|---------------------------------------------------------|
g# a b a g# f# e e c c c b a a
Thamlo Tum Meri Baahein Main Tumhe Sambhaloonga

Jeene ke isshare mil gaye :e---7-7-7h9-7-----7-7------------------------------B--------------10------9-7--7h9--------------------G-9-----------------------------9------------------D---------------------------------------------------A---------------------------------------------------E---------------------------------------------------e---7-7-7h9-7-----7-7-------------------------------B--------------10------------------------------------G-9--------------------------------------------------D---------------------------------------------------A---------------------------------------------------E----------------------------------------------------

NEELE NEELE AMBAR PE :D-----7--8-7-8-7-8-7-8-7--5--7--5----5---------------5------A--5-------------------------------8---8-7-5------7---E--------------------------------------------5--5--d A,A# A, A# A,A# A,A# A, G A G, F G F E D A , A E G (Dm)


now the song starts with Slow Refrain,
neele neele ambar par, chaand jab aaye
E-----------------------------|-----------------5------B---6-5--6-5---6-5--6-5--6-5--|-----5-6-5---5-6--------G-----------------------------|---7-------7-------------pyaar barasaae, hamako tarasaaye (Dm)
E---------3/5-5-------|----------------------------B---5-6-8-------5-----|--5-6--5-6--5-6--5-6--5-6----G-7-------------------|---------------------------------

aisaa koii saathii ho

aisaa koii premii ho

E--------------------10-----|---------10/12-12----B----5-6-8--8/10--10--------|---5-6-8------------G-7-------------------------|-7--------------------------

pyaas dil kii bujhaa jaae (Dm)


E----------------------------------------------------B---6-8-6-8-6-8-6-8-6-----------------------------------------G-7---------------------------------------------------[Main tempo]
THE LEAD AGAIN [ BASS LEAD ]
D---------------7------------------------------------A---5-7---5-7-8---8-8-7-7-5-7-------------------------E-5-----5------------------------------------------E----------------------------------------------------B---6-5------5------------------------------------------G-7-----7--5---7-5---7--5-----------------------------------D------------------8-------8-7--------------------------

WADA RAHA :E|----------------------------------------------|


B|----1--0-1---0-1---3--0----0------------------|
G|------------------------2----2-0--------------|
D|--2-------------------------------------------|
e c b c, b c d b a b a g
Wada Raha Pyaar Se Pyaar Ka
E|----------------------------------------------|
B|--1--0--------0-------------------------------|
G|---------2--0-----0-2-------------------------|
c b a gb ga
Ab Hum Naa Honge Judaa
E|------------0------------0--------------------|

B|--2-------2---2---3--3------1-0-----0---------|
G|-------2--------------------------2-----------|
c# a c# e c# d d e c b a b
Yeh Meri Dhadkane Sun Raha Hai Khuda
Chahe Tumhe Kis Kadar Mera Dil
Tumko Nahi Hai Pata
Yeh Meri Dhadkane Sunraha Hai Khuda
Wada Raha
E|----------------------------------------------|
B|--------0----1--0------0----------------------|
G|----2-----2---------2-----0-------------------|
D|--2-------------------------------------------|
ea ba c b a b g
Dono Jahan Ko Bhoola Ho Main
E|----------------------------------------------|
B|------0----1---0---1--3--0--------------------|
G|---2----2-------------------------------------|
D|-2--------------------------------------------|
ea ba c b c d b
Aisi Lagi Hai Tujhse Lagaan
E|----------------------------------------------|
B|-------0----1-0-------------------------------|
D|----2----2-------2---0------------------------|
G|-2-----------------2--------------------------|
e a ba cb aeg
Chahe Kaho Ise Awaargi

E|-------------0--------------------------------|
B|--------0------3--1-3-0-----------------------|
D|-----2----2-----------------------------------|
G|--2-------------------------------------------|
e a ba ed cdb
Chahe Kaho Ise Deewanapaan

E|----------------------------------------------|
B|---------0-----------0-3----------------------|

G|--0---2----0--0---2---------------------------|
g a bg g a bd
Dil Ne Kaha Dil Ne Suna
E|-----0--1-------0-----------------------------|
B|--3--------3--3------1-0----------------------|
G|----------------------------------------------|
d e fd de cb
Maine Tumhe Dilbar Chuna

NA JAANE MERE DIL :E-----3-5-3-3-6-5-3-3-5-6-8-5B-3----------------------------Na jaane mere dil ko kya ho gaya (Play slow)
E-----2-5-3-2-5-3-2-5-6-6-3---B-3------------------------------Abhi to yahin tha, abhi kho gaya (play slow)

E-----3-5-3-3-6-5-3-3-5-6-8-5B-3----------------------------Na jaane mere dil ko kya ho gaya


E-----2-5-3-2-5-3-2-5-6-6-3---B-3------------------------------Abhi to yahin tha, abhi kho gaya

E-3-10-8-10-6-8-6-6-8-5-5-5-6-8-5Ho gaya hai tujhko to pyaar sajna


E-1-8-6-8-5-5-6-5-6-3-3-3Laakh kar le tu inkaar sajna
E-6-5-6-3-3-3--6-5-6-3-3-3Dildaar sajna, hai yeh pyaar sajna

E-3-10-8-10-6-8-6-6-8-5-5-5-6-8-5Ho gaya hai tujhko to pyaar sajna


E-1-8-6-8-5-5-6-5-6-3-3-3Laakh kar le tu inkaar sajna
E-6-5-6-3-3-3--6-5-6-3-3-3Dildaar sajna, hai yeh pyaar sajna
E-6-5-3-6-6-5-6-8-8-5Dekha na tune mudke bhi peeche
E-5-5-3-5-8-6-5-3Kuch der to main ruka tha

E-6-5-3-6-6-5-6-8-8-5Jab dil ne tujhko rokna chaaha


E-5-3-5-10-8-10-10Door tu jaa chuka tha

E-1-3-5-3--0-1-3-1Hua kyaNa jaana

E-1-3-5-5-3-----------0------B----------------1-3-----------3---Yeh Dil KyonDeewana

Ho gaya hai tujhko to pyaar sajna


Laakh kar le tu inkaar sajna
Dildaar sajna, hai yeh pyaar sajna

E-1-0----------1-1-0-1-3-3-0B--------3-------------------------Ae waqt ruk jaa, tham jaa, thaher jaa

E-0-0----------0-3-1-0---------B---------3------------------3-----Waapas zara daud peeche

E-3-2-0-3-3-2-2-3-5-5-2Main chhod aayi khud ko jahan pe


E-2-2-0-2-7-5-7-7
Woh reh gaya mod peeche
E-3-5-7-5Kahan main
E-2-3-5-3Kahan tu
E-3-5-7-7-5---------0-2-0---B----------------3-----------Yeh kaisa Hai jaadu

E-3-3-10-8-10-6-8-6-6-8-5-5-5-6-8-5Arre Ho gaya hai tujhko to pyaar sajna


E-1-8-6-8-5-5-6-5-6-3-3-3Laakh kar le tu inkaar sajna
E------3-5-3-3-6-5-3-3-5-6-8-5B-3----------------------------Na jaane mere dil ko kya ho gaya (Play slow)
E--------2-5-3-2-5-3-2-5-6-6-3---B-3------------------------------Abhi to yahin tha, abhi kho gaya (play slow)

DILBAR MERE :E-------------7----8--7--------7-----8-7---------8-7--------B-----------8---------------8--------------8---------8---10--

G------9----------------------------------------------------D---9-------------------------------------------------------Dil-bur me-re kab tak mu-jeh Ai-se hi tad-pa-o ge


E------8---8-8-----7----7-8----7--------------------------------------B--10----------------------------10---7---10---7----8---7-7---8-7-----G-------------------------------------------------------------------9-Mai Aa-(ag-dil) mai la-ga dun-ga wo ke pal mai pi-gal ja-o ge

KOI MIL GAYA :E--1--1--3--3--3--5--5--3--3--3


(Beginning Instrumental Part-about 30 sec into the song-repeat 4-5 times)
E--1--1--1--1--3--5--3--3--3--5--3--1-------------------3
B------------------------------------------------3--Khwabon Khayalon Khwahisho Ko Chehra Mila
(Repeat)
E--3--3--3--3--5--3--1-------------3-B-------------------------------3-Mere Hone Ka Matlab Mila
E-----------------1--1---------------------------3--3--1--------B--1--1--3--------------------1--1--3-------------------Koi Mil Gaya, Koi Mil Gaya
E--5--5--3--1--3--5--5--3-----Haan Kaun Mil Gaya
E------------------3--3--1----------B--1--1--3--------------------Koi Mil Gaya
E--1--5--3--5--3--1-----------3--B-------------------------3-----Ho Ho Ho Ho Ho Ho Ho
E------------1----------------B13--------------------Ho Ho Ho

E--1--1--1--3--5--3--3--5--3--1----------3B---------------------------------------3--Yun to hum tum mil ne ko mil the rahe


E--3--3--3--5--3--1------------3-B--------------------------3
Phir kyun aaj aisa laga
E---------------1--1-------------------3--3--1--------B--1--1--3---------------1--1--3-------------------Koi Mil Gaya, Koi Mil Gaya
E--5--5--3--1--3--5--5--3-----Haan Kaun Mil Gaya
E------------------3--3--1----------B--1--1--3--------------------Koi Mil Gaya

O HUMDUM SUNIYO RE :E-0--3--5--3--33--0-O humdum suniyo re,


E-0--3--3--5--3--3--3--0
o jaaniya suniyo re
E-0--3--3--5--7--7--5--7--7--5--7--7--7--7--O jaaniya shaam ko khidki se chori chori
E-0--3--5--5--7--5--0Nange paaon jaa, aayega
E-0--3--5--33--3--0-O humdum suniyo re,
E-0--3--3--5--3--3--3--0
o jaaniya suniyo re
E-0--3--3--5--7--7--5--7--7--5--7--7--7--7--O jaaniya shaam ko khidki se chori chori

E-0--3--5--5--7--5--0Nange paaon jaa, aayega


E--3--2--3--2--0------3--2--3--2--0
Oh suniyo re, oh jaaniya re
E--3--2--3--2--0--5332320-Oh suniyo re, oh oh oh jaaniya re
E--33--35--3555553--03-Dheem dheem tanana dheem tananana oh
E--10--10--10--10--7--5--3--5
Galiyon se aayega
E--33--35--3555553--03-Dheem dheem tanana dheem tananana oh
E--10--10--10--10--7--5--3--5
Seeti bajaayega

E--33--35--3555553--03-Dheem dheem tanana dheem tananana oh


E--10--10--10--10--7--5--3--5
Neem ke ped se
E--33--35--3555553--03-Dheem dheem tanana dheem tananana oh
E--10--10--10--10--7--5--3--5
Paas bulaayega
E-0--3--5--3--3--30-O humdum suniyo re

KISI ROZ TUMSE:e|-0--5--8--7--5--7-------0--5--7--5--4--5---------------------|


Repeat
e|-5--7--11--9--7--9-------5--7--11--9--7--9-------------------|
e|-11--9--7--5-5--7--------9--7--5--3-3--5---------------------|
e|-0--5--7--8--7--5--7-----0--5--7--8--7--5--7------4--4---4--7--5--|
Repeat
e|-12--12--10--9--10--12--10------10--10--9--7--9--10--9------8--8--7--5--7--8--7-----|
e|-4---4--4--4--7--5--------------------------------------------|

O bladee O bladaa....
e|-5--7--8--8--8-----4--5--7--7--7-----7--9--10--10--10------13-12-11-12----------|

SURAJ HUWA MADHAM :E |------5--5------------------5----7-8---7-7------------|


B |---5-------5-8-----5------------------------8---------|
G |------------------------------------------------------|
e a aeg e
a bc bb g
Suraj hua maddham,
chaand jalne laga
E |------5----------------5-----7--8--7--7---------------|
B |---5-----5--8---5------------------------8------------|
G |------------------------------------------------------|
e a e g e a b c b b g
Aasmaan yeh haai, kyoon pighalne laga
E |--5----5--5------5-------7---7---------5--5-----------|

B |--------------8-----------------5---8-----------------|
G |------------------------------------------------------|
a a a g a
b b e g a a
Main thehra raha, zameen chalne lagi
E |----5--5-7------5----------7--7---------5--5----------|
B |------------8--------------------5---8----------------|
G |------------------------------------------------------|
a ab g a
b b e g a a
Dhadka yeh dil,
saans thamne lagi

E |---7---5---------5--5--7-7-7--------------------------|
B |------------8-----------------8-8-8--5--5---5---------|
G |------------------------------------------------------|
b a g a a bbb ggg a a a
Oh, kya yeh mera pehla pehla pyaar hai

E |--8-8-7-5----7---7-----5--5--7-7-7---------5---5--5---|
B |----------8-------------------------8-8-8-------------|
G |------------------------------------------------------|
ccbag b b a a bbb ggg a a a
Sajna, kya yeh mera pehla pehla pyaar hai

NA TUM JAANO NA HUM :E|------------------------------------------------B|---3-----3---1----------1-----------------------G|----------------3----3--------------------------D|------------------------------------------------d d c a# a# c


Kyoon Chalti Hai Pawan

E|------------------------------------------------B|---3-----3---1----------1-----------------------G|----------------3----3--------------------------D|------------------------------------------------d d c a# a# c
Kyoon Jhoomey Hai Gagan

E|----------------1-------------------------------B|-1------3---4------4--3--4--3-1------3-1--------G|------------------------------------------3-2---D|------------------------------------------------c d d# f d# d d# d c d c a# a
Kyoon Machchalta Hai Mann
E|------------------------------------------------B|------------------------------------------------G|-----5--3--2-5--3------------5---3--2-5--3------D|-3------------------------3---------------------A|------------------------------------------------f c a# a c a#
f c a# a c a#
Na Tum Jano Na Hum
Na Tum Jano Na Hum
----------------------------------------------------------Kyoon Aati Hai Bahar
Kyoon Lut Ta Hai Qaraar
Kyoon Hota Hai Pyaar
Na Tum Jano Na Hum
Na Tum Jano Na Hum...
--------------------------------------------------------

E|------1-1-----3--1-----------1-1----3--1--------B|-3--4-----4-------------3-4------4--------------G|------------------------------------------------d d# f f d# g f d d# f f d# g f
ye Madhoshiyaan, Ye Tanhaiyaaan
E|--------------1---------------------------------B|-1-3--4--4--3------4---4--3---1-1--4-1----------G|------------------------------------------------c d d# d# d f d# d# d c c d# d
Tasavur Mein Hain Kis Ki Parchaiyaan
------------------------------------------------------Ye Bheega Samaa, Umangein Jawan
Mujhe Ishq Le Ja Raha Hai Kahan
Kyoon Goom Hai Har Dishaa
Kyoon Hota Hai Nashaa
Kyoon Aata Hai Mazaa

Na Tum Jano Na Hum


Na Tum Jano Na Hum
-----------------------------------------------------The melody in between....

E|---------------------------------------------------------B|---------------------------------------------------------G|----------------4-h6-6---------------4--------6\4--------D|-----5/7-7-7-7---------6-6-6-4-6-7-6---7-6-4------4/6----A|--4----------------------------------------------------5-E|----------------------------------------------------------

E|------5-5-5-9-7-9-10-9-7-------------7-------------------B|-------------------------10-9-7-9-10---10-9-7------------G|-4/6------------------------------------------7/9--------D|--------------------------------------------------9\7----A|------------------------------------------------------7--E|--------------------------------------------------------------------------------------------------------------------- HERO TUNE :E|------10-12-10-12-10----------------------------------|


B|---8-----------------11--8--11-----------10--8--------|
G|------------------------------------------------------|
G d e d e d a# g a#
a g

E|-----------9-10-12---12-15-15--13-13-10-9--8----------|
B|-11-11-10------------------------------------11-------|
G|------------------------------------------------------|
a# a# a, c# d e, e g g, f e d c# c a#

HAYE MERA DIL :E|-----------------------------------------------------B|----------------1--------------------------------G|---------1---1------1---3------1---0--1--0------------

D|---3--3------------------------------------3---------A|-----------------------------------------------------E|-----------------------------------------------------f f g# g# c g# a# g# g g# g f
Kitna Pyaara Hai Yeh Pyaar, Pyaara Pyaara
E|----1------------------------------------------------B|-1-----4--2--1---2----------4---2---1----1-----------G|-------------------------3-------------3-------------D|-----------------------------------------------------A|-----------------------------------------------------E|-----------------------------------------------------c f d# c# c c#, a# d# c# c a# c
Hua hai pahli baar , hota hai ek baar
E|-------------1-1-------------------------------------B|--1--------1-----------------------------------------G|--------3------------1--0--1-0-----------------------D|--------------------------------3--------------------A|-----------------------------------------------------E|-----------------------------------------------------c a# c f f, g# g g# g f
Phir na hoga , yeh dooobaara
-------------------------------------------------------------------------------E|-------------------------------1---------------------B|-------1--2---1--------1-1---------2---1-------------G|-1-3-------------------------------------3-----------D|-----------------------------------------------------A|-----------------------------------------------------E|-----------------------------------------------------g#a# c c# c, c c f c# c a#
hai mera dil, chura ke le gaya
E|--------1--------------------------------------------B|---1-2-------2--1------------------------------------G|-------------------3-----3\1--------1--0-1--0--------D|--------------------------------------------3--------A|-----------------------------------------------------E|-----------------------------------------------------c c# f c# c a#, a#\g#
g# g g# g f
churane waala
mera katil..

DIL CHAHTA HAI :E----------------------------------------------------B----------------------------------------------------G----------------------------------------------------D----------------------------------------------------A------1-3----3-3----------1-3---3-3--------1-3---3-3E-1-3-----------------1-3--------------1-3-------------------------------------------------------------------------------------------

E----------------------------------------------------B----------------------------------------------------G----------------------------------------------------D----------------------------------------------------A----------1--3-3-------------1--3-3-----------------E--1---3--------------1---3--------------------------F G A# C C F G A# C C
Dil chahta hai, dil chahta hai
E----------------------------------------------------B----------------------------------------------------G----------------------------------------------------D------------------1--1--0--3-1--0-------------------A-----------1--3-------------------3----------1-3----E--1---3-------------------------------1--3----------F G A# C D# D# D F D# D C F G A# C
Dil chahta hai, kabhi na beete chamkile din
Dil chahta hai, hum na rahe kabhi, yaaron ke bin

E----------------------------------------------------B----------------------------------------------------G--3---2------0--3---------3---3---2---0-------------D----------3-----------------------------------------A----------------------------------------------------E----------------------------------------------------A# A F G A#,
A# A# A G
Din din bhar ho
pyaari baatein
Jhoome shaame,
gaaye raatein
--------------------------------------------------------------------------------

E------------------6--6----5-5-3--3-----5------------B--3--6--3----6-3-------------------6-6----8-8-------G----------------------------------------------------D----------------------------------------------------A----------------------------------------------------E----------------------------------------------------D F D F D A# A# A A G G F F A G G
Masti mein rahe dooba dooba hameshaa samaa
E-----------------------3--3-1-1---------------------B--3--6--3---6--3---3------------3-3--1----3-1-1-----G---------------------------------------3------------D----------------------------------------------------A----------------------------------------------------E----------------------------------------------------D F D F D D G G F F D D C A# D C C
Humko raahon mein yunhi milti rahe khushiyaan

Dil chahta hai, kabhi na beete chamkile din, oh oh


Dil chahta hai, hum na rahe kabhi yaaron ke bin

-------------------------------------------------------------------------------the music somewhere in the song...


-8-------6---8--------6---8------------------------------8-------------8--------------------------------------------------------------------------------------------------------------------------------------------------------------------------------------------c g a# c, g a# c,

-8-------6---8-----------6---5---------------------------8----------6---------------8---6---------------------------------------------------------------------------------------------------------------------------------------------------------------------------c g a# c f,
a# a g f,

------------------------------------------------------4---1---4----3--------1------------------------------------------------3--------0----3-----1------------------------------------------------------------------------------------------------------------------d# c d#, d a# c g a# c