REPORT DATE 10-09-2013

DATE FILED

09:37 AM

Recorder's fee book report

1=GRANTOR 2=GRANTEE 3=TRACT

FEE BOOK #
TIME FILED

H=HUMAN N=NON-HUMAN P=PLATTED T=UNPLATTED U=UNFORMATTED
Y=INDEXED N=NON-INDEXED
NAME/TRACT/LEGAL DESCRIPTION

FROM

10/08/2013 THRU 10/08/2013
INSTRUMENT

PAGE

TYPE

TRANSFER
INST AMOUNT
BOOK & PAGE INST DATE
CNT: PAGE QTY NAME PARCEL
RETURNED TO WHOM

CHARGED
ZIP
DATE
UCC STANDARD
-----------------------------------------------------------------------------------------------------------------------------------10/08/2013
131881

1
1

H Y NESHEIM WALTER V
H Y NESHEIM WALTER

10:06 AM

1
1

H Y NESHEIM RACHEL L
H Y NESHEIM RACHEL

2
2

H Y NESHEIM RACHEL L TR
H Y NESHEIM RACHEL L REVTR

3
3

U N UND 1/2 INT:
T Y 89-36-3-PT SW4

3
3

T Y 89-36-10-W2 NW4
T Y 89-36-4-PT E2 NE FRL4

D

DEEDS
.00
2

131881 10/04/2013
0
0
3

3
U N SEE #131091 ON 10/08/2013
-----------------------------------------------------------------------------------------------------------------------------------10/08/2013
131882

1
1

H Y FRANCK RAYMOND E JR
H Y FRANCK MEREDITH

10:09 AM

1
1

H Y FRANCK DERRICK R
H Y FRANCK MARLA J

1
1

H Y FRANCK JAMES A
H Y FRANCK CHERYL

2
3

N Y IOWA NATURAL HERITAGE FOUNDATION
T Y 86-36-15-N2 NE4; SE4 NE4-EXC PT

D

DEEDS
173.60
3

108,510.00

131882 05/23/2013
0
0
1

-----------------------------------------------------------------------------------------------------------------------------------10/08/2013
1
H Y RAASCH BRUCE
D
DEEDS
131883
10:13 AM

1
2

H Y RAASCH PAULINE
N Y BRUPA LLC

.00
131883

10/07/2013

3
T Y 87-38-10-PT NE4 NW4
2
0
0
1
-----------------------------------------------------------------------------------------------------------------------------------10/08/2013
131884

1
1

N Y SAC COUNTY SHERIFF
N Y SAC COUNTY BOARD OF SUPERVISORS

10:33 AM

1
1

N Y SAC COUNTY ATTORNEY
N Y SAC COUNTY AUDITOR

2
2

N Y AUBURN CITY OF
N Y CITY OF AUBURN

MI

MISCELLANEOUS
.00
2

131884 09/09/2013
0
0
0

3
U N LAW ENFORCEMENT CONTRACT ADDENDUM
-----------------------------------------------------------------------------------------------------------------------------------10/08/2013
131885

1
1

N Y SAC COUNTY SHERIFF
N Y SAC COUNTY BOARD OF SUPERVISORS

10:34 AM

1
1

N Y SAC COUNTY ATTORNEY
N Y SAC COUNTY AUDITOR

2
2

N Y EARLY CITY OF
N Y CITY OF EARLY

MI

MISCELLANEOUS
.00
2

131885 09/03/2013
0
0
0

1

REPORT DATE 10-09-2013
DATE FILED

09:37 AM

Recorder's fee book report

1=GRANTOR 2=GRANTEE 3=TRACT

FEE BOOK #
TIME FILED

H=HUMAN N=NON-HUMAN P=PLATTED T=UNPLATTED U=UNFORMATTED
Y=INDEXED N=NON-INDEXED
NAME/TRACT/LEGAL DESCRIPTION

FROM

10/08/2013 THRU 10/08/2013
INSTRUMENT

PAGE

2

TYPE

TRANSFER
INST AMOUNT
BOOK & PAGE INST DATE
CNT: PAGE QTY NAME PARCEL
RETURNED TO WHOM

CHARGED
ZIP
DATE
UCC STANDARD
-----------------------------------------------------------------------------------------------------------------------------------10/08/2013
131886

1
1

N Y SAC COUNTY SHERIFF
N Y SAC COUNTY BOARD OF SUPERVISORS

10:35 AM

1
1

N Y SAC COUNTY AUDITOR
N Y SAC COUNTY ATTORNEY

2
2

N Y LYTTON CITY OF
N Y CITY OF LYTTON

MI

MISCELLANEOUS
.00
2

131886 09/03/2013
0
0
0

3
U N LAW ENFORCEMENT CONTRACT ADDENDUM
-----------------------------------------------------------------------------------------------------------------------------------10/08/2013
131887

1
1

N Y SAC COUNTY SHERIFF
N Y SAC COUNTY BOARD OF SUPERVISORS

10:36 AM

1
1

N Y SAC COUNTY AUDITOR
N Y SAC COUNTY ATTORNEY

2
2

N Y NEMAHA, CITY OF
N Y CITY OF NEMAHA

MI

MISCELLANEOUS
.00
2

131887 09/09/2013
0
0
0

3
U N LAW ENFORCEMENT CONTRACT AMENDMENT
-----------------------------------------------------------------------------------------------------------------------------------10/08/2013
131888

1
1

N Y SAC COUNTY SHERIFF
N Y SAC COUNTY BOARD OF SUPERVISORS

10:37 AM

1
1

N Y SAC COUNTY AUDITOR
N Y SAC COUNTY ATTORNEY

2
2

N Y ODEBOLT CITY OF
N Y CITY OF ODEBOLT

MI

MISCELLANEOUS
.00
2

131888 09/03/2013
0
0
0

3
U N LAW ENFORCEMENT CONTRACT AMENDEMENT
-----------------------------------------------------------------------------------------------------------------------------------10/08/2013
131889

1
1

H Y SNYDER NICHOLAS M
H Y SNYDER ANGELA J

01:25 PM

2
2

H Y RAMOS JACINTO
H Y RAMOS VICTORINA

C

CONTRACT
.00
7

78,500.00

131889 08/29/2013
0
0
1

3
T Y 89-36-10-PT NE4 NE4
-----------------------------------------------------------------------------------------------------------------------------------10/08/2013
131890

1
1

H Y HANRAHAN CRYSTAL L
H Y KREFT CRYSTAL L

02:47 PM

1
2

H Y BRANDT CRYSTAL L
H Y KREFT JEFFREY R

3
3

T Y 88-36-15-PT NE4
T Y 89-37-22-PT N2 SE4

AF

AFFIDAVITS
.00
5

131890 10/08/2013
0
0
0

------------------------------------------------------------------------------------------------------------------------------------

REPORT DATE 10-09-2013
DATE FILED

09:37 AM

Recorder's fee book report

1=GRANTOR 2=GRANTEE 3=TRACT

FEE BOOK #
TIME FILED

H=HUMAN N=NON-HUMAN P=PLATTED T=UNPLATTED U=UNFORMATTED
Y=INDEXED N=NON-INDEXED
NAME/TRACT/LEGAL DESCRIPTION

FROM

10/08/2013 THRU 10/08/2013
INSTRUMENT

PAGE

3

TYPE

TRANSFER
INST AMOUNT
BOOK & PAGE INST DATE
CNT: PAGE QTY NAME PARCEL
RETURNED TO WHOM

CHARGED
ZIP
DATE
UCC STANDARD
-----------------------------------------------------------------------------------------------------------------------------------10/08/2013
131891

1
1

H Y THORPE DENZEL
H Y THORPE CAROL

02:48 PM

1
2

N Y THORPE TURKEY FACILITY LLC
H Y KREFT JEFFREY R

2
3

H Y KREFT KELLYKAY
T Y 89-37-22-N2 SE4

MI

MISCELLANEOUS
.00
2

131891 10/03/2020
0
0
0

3
U N SEE #042721 ON 11-4-2004
-----------------------------------------------------------------------------------------------------------------------------------10/08/2013
131892

1
2

N Y THORPE TURKEY FACILITY LLC
H Y KREFT JEFFREY R

02:49 PM

2
3

H Y KREFT KELLYKAY
T Y 89-37-22-PT N2 SE4

D

DEEDS
2,228.80
3

1,393,200.00

131892 10/03/2013
0
0
1

3
U N FULFILLMENT OF #042721 ON 11-4-2004
-----------------------------------------------------------------------------------------------------------------------------------10/08/2013
131893

1
1

H Y THORPE CAROL
H Y THORPE DENZEL

02:50 PM

2
3

H Y KREFT JEFFREY
T Y 88-36-15-PT NE4

3
3

U N FULFILLMENT OF #102185 ON 11-29-2010
U N FULFILLMENT OF #111177 ON 7-19-2011

D

DEEDS
161.60
3

101,500.00

131893 10/03/2013
0
0
1

-----------------------------------------------------------------------------------------------------------------------------------10/08/2013
1
H Y LARSEN RICHARD W
AFT AFFIDAVIT
131894
04:13 PM

1
2

H Y LARSEN JANICE M
H Y LARSEN JANICE M

2
3

H Y LARSEN RICHARD W
T Y 88-36-25-PT OL 7

.00
131894
3

0

10/08/2013
0

1

3
U Y REFERENCE BK 57 PG 384
-----------------------------------------------------------------------------------------------------------------------------------10/08/2013
81L861606

1
2

H Y SORENSEN MICHAEL GENE
N Y CITIZENS BANK

MBL

01:33 PM

3

U Y 2007 HONDA ORM #AM4461

81L

MOTOR BIKE LIEN
.00
1

861606 10/08/2013
1
0
0

-----------------------------------------------------------------------------------------------------------------------------------10/08/2013
1
H Y FRANCK RAYMOND E JR
GWH GroundWaterHaz
GWH131882
10:09 AM

1
1

H Y FRANCK MEREDITH
H Y FRANCK DERRICK R

1
1

H Y FRANCK MARLA J
H Y FRANCK JAMES A

1
2

H Y FRANCK CHERYL
N Y IOWA NATURAL HERITAGE FOUNDATION

.00
131882
3

0

108,510.00
05/23/2013
0

1

REPORT DATE 10-09-2013
DATE FILED

09:37 AM

Recorder's fee book report

1=GRANTOR 2=GRANTEE 3=TRACT

FEE BOOK #
TIME FILED

H=HUMAN N=NON-HUMAN P=PLATTED T=UNPLATTED U=UNFORMATTED
Y=INDEXED N=NON-INDEXED
NAME/TRACT/LEGAL DESCRIPTION

FROM

10/08/2013 THRU 10/08/2013
INSTRUMENT

PAGE

4

TYPE

TRANSFER
INST AMOUNT
BOOK & PAGE INST DATE
CNT: PAGE QTY NAME PARCEL
RETURNED TO WHOM

CHARGED
ZIP
DATE
UCC STANDARD
-----------------------------------------------------------------------------------------------------------------------------------10/08/2013
GWH131889

1
1

H Y SNYDER NICHOLAS M
H Y SNYDER ANGELA J

01:25 PM

2
2

H Y RAMOS JACINTO
H Y RAMOS VICTORINA

GWH

GroundWaterHaz
.00
78,500.00
3

131889 08/29/2013
0
0
1

3
T Y 89-36-10-PT NE4 NE4
------------------------------------------------------------------------------------------------------------------------------------

REPORT DATE 10-10-2013
DATE FILED
FEE BOOK #
TIME FILED

02:38 PM

1=GRANTOR 2=GRANTEE 3=TRACT

Recorder's fee book report

FROM

10/09/2013 THRU 10/09/2013

PAGE

INSTRUMENT TYPE
TRANSFER
INST AMOUNT
H=HUMAN N=NON-HUMAN P=PLATTED T=UNPLATTED U=UNFORMATTED
BOOK & PAGE INST DATE
Y=INDEXED N=NON-INDEXED
CNT: PAGE QTY NAME PARCEL
NAME/TRACT/LEGAL DESCRIPTION
RETURNED TO WHOM
CHARGED
ZIP
DATE
UCC STANDARD
-----------------------------------------------------------------------------------------------------------------------------------10/09/2013
1
H Y MILLER RANDY L
D
DEEDS
131895
1
H Y MILLER KATHRYN A
.00
09:27 AM
2
H Y MILLER RANDY L
131895 10/08/2013
2
H Y MILLER KATHRYN A
2
0
0
1
3
T Y 89-38-33-NW4-UND 1/3 INT
-----------------------------------------------------------------------------------------------------------------------------------10/09/2013
1
H Y TURNQUIST GEORGE A
AFT AFFIDAVIT
131896
1
H Y TURNQUIST ALICE C
.00
09:53 AM
2
H Y BENDIXEN KRISTINA
131896 10/01/2013
3
P Y SCHALLER-SCHALLER 1ST ADD-BL 14-PT LTS 12 14-ALL LT 13
6
0
0
1
3
P Y SC-1101-BL 14-PT LTS 12 14-ALL LT 13
3
U N SEE #111556 ON 9-7-2011
3
U N AFFIDAVIT IN SUPPORT OF FORECLOSURE OF REAL ESTATE CONTRACT
-----------------------------------------------------------------------------------------------------------------------------------10/09/2013
1
H Y LAHR CORA
M
MORTGAGE
131897
1
H Y LAHR SCOTT
.00
50,000.00
10:01 AM
1
H Y LAHR SCOTT E
131897 09/19/2013
2
N Y BANK MIDWEST
6
0
0
0
3
T Y 87-36-32-PT OL 1 SE4 NE4
-----------------------------------------------------------------------------------------------------------------------------------10/09/2013
1
H Y WUNSCHEL RUSSELL S
D
DEEDS
131898
1
H Y WUNSCHEL LOIS A EX
.00
10:03 AM
2
H Y WUNSCHEL LOIS A
131898 10/07/2013
2
H Y WUNSCHEL DEE ANN
2
0
0
2
2
H Y ELLIOTT LORI
2
H Y WUNSCHEL STEVEN
2
H Y WUNSCHEL DAVID
2
H Y ELLIOTT KRISTINE E
3
T Y 88-37-25-PT W2 SE4;-NE4 SW4
3
T Y 88-37-36-PT NE4
3
T Y 88-37-1-PT E2 NW FRL4;-PT W2 NE FRL4
-----------------------------------------------------------------------------------------------------------------------------------10/09/2013
1
H Y GRONEMEYER PAUL DALE
D
DEEDS
131899
1
H Y BEERS SUE ZANE EX
.00
10:05 AM
2
H Y BEERS SUE ZANE
131899 10/08/2013
3
P Y ODEBOLT-ORIGINAL TOWN ODEBOLT-BL 6-LTS 8 9 S2 LT 103
0
0
1
3
P Y OD-6010-BL 6-LTS 8 9 S2 LT 10
------------------------------------------------------------------------------------------------------------------------------------

1

REPORT DATE 10-10-2013
DATE FILED
FEE BOOK #
TIME FILED

02:38 PM

1=GRANTOR 2=GRANTEE 3=TRACT

Recorder's fee book report

FROM

10/09/2013 THRU 10/09/2013

PAGE

2

INSTRUMENT TYPE
TRANSFER
INST AMOUNT
H=HUMAN N=NON-HUMAN P=PLATTED T=UNPLATTED U=UNFORMATTED
BOOK & PAGE INST DATE
Y=INDEXED N=NON-INDEXED
CNT: PAGE QTY NAME PARCEL
NAME/TRACT/LEGAL DESCRIPTION
RETURNED TO WHOM
CHARGED
ZIP
DATE
UCC STANDARD
-----------------------------------------------------------------------------------------------------------------------------------10/09/2013
1
N Y COMMERCIAL SAVINGS BANK
R
RELEASE
131900
2
H Y SHELP DARLIS A
.00
01:08 PM
3
P Y LAKE VIEW-DENISON BEACH ADD-BL 1-LT 9131900 10/07/2013
3
P Y LA-7106-BL 1-LT 9
1
0
0
0
3
U N RELEASES #131245 ON 7-11-2013
-----------------------------------------------------------------------------------------------------------------------------------10/09/2013
1
H Y SHELP DARLIS A
M
MORTGAGE
131901
2
N Y COMMERCIAL SAVINGS BANK
.00
400,000.00
01:09 PM
3
P Y LAKE VIEW-DENISON BEACH ADD-BL 1-LT 9131901 10/02/2013
3
P Y LA-7106-BL 1-LT 9
15
0
0
0
3
U N SEE ASSIGNMENT #131902 ON 10-9-2013
-----------------------------------------------------------------------------------------------------------------------------------10/09/2013
1
N Y COMMERCIAL SAVINGS BANK
AS
ASSIGNMENT
131902
2
N Y MORTGAGE ELECTRONIC REG SYSTEMS INC
.00
01:10 PM
3
P Y LAKE VIEW-DENISON BEACH ADD-BL 1-LT 9131902 10/02/2013
3
P Y LA-7106-BL 1-LT 9
2
0
0
0
3
U N ASSIGNS #131901 ON 10-09-2013
------------------------------------------------------------------------------------------------------------------------------------

Sign up to vote on this title
UsefulNot useful