You are on page 1of 23

Έπαψες αγάπη να θυμίζεις

Intro:

e---------------------0------------0-----0-------0------|
B------1-3-1--------3---3--------0---0-----0---0---0----|
G----0------------2------------0-------0-----0-------0--|
D--2------------0------------2--------------------------|
A-------------------------------------------------------|
E-------------------------------------------------------|

Εδώ παίζεται ένας δακτυλισμός στην κάθε συγχορδία:


e------0-----|
B-------0----|
G----0---0---|
D---0-----0--|
A--0---------|
E------------|

Em C D Em
Ο καφές σου ···· ·······
C D Bm
και το ράδιο κλει··· ···· ··· ·····
D Em
σε θυμάμαι ε···· ········
C D Em
στου μονού μου κρεβ····· ··· ·········

C D@ Bm
Το ξέρω πως δ·· ·· ·······
C D Em
αν έπρεπε τη σκέ·· ··· ·· ·······
C D@ Bm
μα ακόμα δ·· ········
C D Em
γιατί έπαψες αγ··· ·· ········

Πρέπει να παιχτεί εδώ για να γίνουν τα τραβήγματα:


e-------------------------------------------------------|
B-------------------------------------------------------|
G-------------------------------------------------------|
D------5----------5----------5----7-7--5-5--------------|
A--5-7-----5-5-5-7----5-5-5-7---------------7-7--5-5----|
E----------------------------------------------------7--|

Ρυθμός Disco (τα μπάσα ανάλογα με τις συγχορδίες)


Στην κάθε συγχορδία:
e-----^-|-----^-|-|
B-----|-|-----|-|-|
G-----|-V-----|-V-|
D-----------------|
A--0-0------------|
E----------0-0----|

Εm
C D Em
Υπάρχουν το νιώθ· ···· ·········
C D Bm
υπάρχουν κομμάτια ··· ··· ··· ·····
C D Em
τραγούδια που γίναν ·· ······ ··· ·····
C D Em
τραγούδια που γί··· ···· · ······

Το ξέρω ···...
(Ρυθμός Disco και εδώ)

D@ => χτύπημα προς τα κάτω

Εσύ εκεί

Em Bm
··· ···· ·· ··· ···· ····· ·· ········· βαρύς χειμώνας και το κλίμα ακατάλληλ
ο
Em Bm
··· ···· ·· ··· ···· ····· ·· ······· να σε γυρεύω σε μια ψεύτικη υδρόγειο

Em
··· ···· ·· · ······ ··· ··αταγή και τελεσίγραφο | 2x
Bm
·· ··· ··· ··· ·· ····· ···αλιά μ' ένα αντίγραφο | 2x

A F#m Bm
··· ···· εσύ εκεί

Em Bm
··· ···· ·· ··· ···· ····· ·· ·······α να τραγουδάω της αγάπης τα παράπονα
Em
··· ···· ·· ··· ····μένος στην κασέτα σου
Bm
·· ·· ······· · ···· σου και το ψέμα σου

A F#m Bm
··· ···· ·σύ εκεί ] 2x
Solo...

Em
··· ···· ·· · ······ ··· ··αταγή και τελεσίγραφο | 2x
Bm
·· ··· ··· ··· ·· ····· ···αλιά μ' ένα αντίγραφο | 2x

A F#m Bm
··· ···· ·σύ εκεί ] 2x

Να και το solo, enjoy...

e|------------------------------------------------------------------------|
B|--10~~~~10--------------------------------------------------------------|
G|------------11--11--11--11--9~~~~9--9--9--11----------------------------|
D|----------------------------------------------12~~~~12--12--9--12-------|
A|------------------------------------------------------------------------|
E|------------------------------------------------------------------------|

e|------------------------------------------------------------------------|
B|--10-10-10-10-10-12-----------------10----------------------------------|
G|---------------------11-11-11-11-11-----9-9-9~~~~--11-------------------|
D|------------------------------------------------------------------------|
A|------------------------------------------------------------------------|
E|------------------------------------------------------------------------|

e|------------------------------------------------------------------------|
B|------------------------------------------------------------------------|
G|------------------------------------------------------------------------|
D|--12--11--12^~~~~--11h12p11--11h12--11------11h12--11------12------
9----|
A|----------------------------------------12-------------12------12-------|
E|------------------------------------------------------------------------|

e|------------------------------------------------------------------------|
B|------------------------------------------------------------------------|
G|-------------9--11--9--11--9--------------------------------------------|
D|--12--9--12-------------------12p9------9-------------------------------|
A|------------------------------------12----------------------------------|
E|------------------------------------------------------------------------|

e|------------------------------------------------------------------------|
B|------------10----------10----------10----------10----------------------|
G|--9--9--11------11--11------11--11------11--11------11--11--------------|
D|------------------------------------------------------------------------|
A|------------------------------------------------------------------------|
E|------------------------------------------------------------------------|

e|------------------------------------------------------------------------|
B|--10/12--12--12--10--12--10---------------------------------------------|
G|-----------------------------11--9--11--9-------------------------------|
D|-------------------------------------------9------9---------------------|
A|----------------------------------------------12------------------------|
E|------------------------------------------------------------------------|

e|------------------------------------------------------------------------|
B|------------------------------------------------------------------------|
G|---------9--11--9-------------------------------------------------------|
D|--9--12------------12--9--12--9--12\9-----------------------------------|
A|------------------------------------------------------------------------|
E|------------------------------------------------------------------------|

Hey man, κοίτα μπροστά

Am C E Am
E-----------------------|
B--1----1----0----1-----|
G---2----0----1----2----|
D-----------------------|
A-0----3----1----0------|
E-----------------------|

Dm G Am E Am
E--1----3----0--0---0--0---0--0--|
B---3----3----1--1---0--0---1--1-|
G--------------------------------| ] 2x
D-0------------------------------|
A-----------0--0---1--1---0--0---|
E------3-------------------------|

Am C E Am
··· ··· ······ ·ρία σου παίρνουν
··· ··· ······ μισό τους ζητάς
······ ·· ···· ·· δουλειές ανεβαίνουν
···· ·· ······, γι’ αυτό μη μιλάς

······· ·······, άσπρο σου δίνουν


·· ···· ·· ·····εις για μαύρο εσύ
···· ······, ··σαι από εκείνους
··· ··· ···· ·ρίζει η προσοχή

Dm G Am
·ey man, ····· ······ά | 2x
E Am
····· ······ ······· πολύ στα παλιά | 2x
Dm G Am
·ey man, ····· ······ά | 2x
E Am
··· ········ ··· ····υν πολλά | 2x

·· ’···· ·· · ··λη σου η θλιμμένη


“·· ·········· ·ερνώ”, θα σου πει
“··· ······ · ····· μου, μα θέλω και σένα
·· ·· ······εις με ψυχή”

····· ·· ·····ις που αντέχουν


···· ··· ···, ·εν είναι για μας
········ ·········· παιδιά που δεν έχω
···· ·· ··· ·· στείρα αγκαλιά

·ey man, ····· ······ά | 2x


····· ······ ······· πολύ στα παλιά | 2x
·ey man, ····· ······ά | 2x
··· ········ ··· ····υν πολλά | 2x

Κάνε κάτι για σένα

Εισαγωγή:
Em

Em Am
Κάνε κάτι κ·· ··· ····
G D
Μην κοιτάς μό·· ···· ······
Em Am
Κάνε κάτι κ·· ··· ····
C B Am
Κι άσ’ τα λόγια ····· ·········

Κάνε κάτι κ·· ··· ····


Και θα δεις ·· ·········
Όπως μίσησ·· ·· ·····
B Am
Τη ζωή πριν ·· ·········

Am G
Κάνε κάτι να ξ······· | 2x
Bm Am
Όπως ξέχασες κ·· ···· | 2x
Am Bm
Είναι κρίμα να ······· | 2x
Am D Em
Η ζωή χωρίς εσ··· | 2x
B:-7--8--10--7--8--10--8-8-7-7-
B:-3--5--7--8--10-10-----------
e:-7-7-7-5--5-5- B:-8-8-7-8----
B:-7--8--10--8-7-3-5-----------

Κάνε κάτι κ·· ··· ····


Και μην πλάθ··· ········
Όλα είναι σ·· ····· ···
Απαντήσεις ·· ·······

Κάνε κάτι να ξε······... ] 2x

Κάνε με να περιμένω

Εισαγωγή (ακουστική κιθάρα):


Em G D A

Εισαγωγή (ηλεκτρική κιθάρα):


Β--7-8-7--7-8/121212-101010-12-10
G-------9------------------------

Β--7-8-7--7-8/121212-10-8-7-8-10-
G-------9------------------------

Em D C D
Κάνε με να περιμέν·, ·· ···········
Em D G D
Όπως το χώμα περιμένει ·· ···· ··· ·· ·········
Em D C D
Κάνε με να περιμένω, ······ ·’ ·········
Em D G D
Πως να τη νιώσω τη χαρά ·· ··· ········· · ····

C D Bm Em
Κάνε με να περιμένω κι ·· ·········· | 2x
Am D Bm Em
Πάνω σε πίστες ευτυχίας ··· ············· | 2x

Κάνε με να περιμέ·· ·· ···········


Τα κάλαντα του θερισμού ·· ······ ············
Κάνε με να περιμέ·· ·· ·’ ········
Αν δεν υπάρχει απόστα·· ··· ·· ·· ········

Κάνε με να περιμένω κι α· ·········· | 2x


Πάνω σε πίστες ευτυχίας ··· ············· | 2x
Μέλυδρον

Intro:

B------------12-12-12----12-----------------
G-----12--14----------12----12-11-12-11-----
D--14-----------------------------------14--

Em D Em
···· ·· ····· ·α πετάξω να χαθώ
Em D Em C Em
···· ······· ·· ·α γίνει αν γυρίσω
Em Am Em
··· ····· ··· ·· γελάσω προσπαθώ
Em Am Em D Em
·· ····· ···· ··· βαθιά δε θα τολμήσω

Em D Em
···· ·········· ·· βράδια στη δουλειά
Em D Em C Em
·· · ······ ···· ··ς γινότανε πιο μαύρη
Em Am Em
········ ···, καλά ευχαριστώ
Em Am Em D Em
·· ···· ······ ··· τρυπά και τη χαλάει

Em D G Am C Em
····· ····· · ······· γιατί κινείται πάντα
Em D G Am C Em
·· ·· ····· ···· ······ ·τεριές καμία δε σ' αράζει
Am G Em C Em
···’ ··· ··· ·········α τραγούδι με τη μπάντα
Em C Em Bm Em
····· ····· · ······· γιατί με σένα μοιάζει

Intro

Em D Em
··· ·· ······· ·· κάνω ότι αισθάνομαι
Em D Em C Em
········ ··· ·······α σωστά να μου μιλάνε
Em Am Bm Em C Em
··· ··· ······ ·· ···· γεμίζει το ποτήρι σου
Em Am Bm D Em
·· ·· ······ ········ερο εδώ δεν σε κερνάνε

Em D Em
··· ········· · ζωή σε μια άρνηση
Em D Em C Em
·· ·· ····· ······ την άρνηση ακολούθα
Em Am Em C Em
·· ·· ········ ·· ·· ·είχνουνε στο σπίτι σου
Em Am Em D Em
····· ········ ανάποδα τα ρούχα

····· ····· η θάλασσα...

Μια συνουσια μυστική

Εισαγωγή από τον «Γιώτη από Κύπρο», ochampao@hotmail.com,


12/11/2002:
Αυτή είναι η δική μου εκδοχή για την εισαγωγή του τραγουδιού ‘Μια
συνουσία μυστική’ των Πυξ-Λαξ. Η εισαγωγή παίζεται ολόκληρη στην πρώτη
χορδή. Οι ταμπλατούρες που δεν χωρίζονται με κενή γραμμή είναι
συνεχόμενες, απλά λόγω χώρου δεν μπορούσα να τις βάλω στην ίδια
γραμμή.
Μετά από την εισαγωγή ακολουθεί το τραγούδι ακριβώς όπως ήδη υπάρχει
παρακάτω.

e|-17-17--15-17--13-15--13-15--12-13--12-13--10-12-
e|-10-12--8-10--8-10--7-8--7-8--5-7--5-7---3-------

e|-3-3--5-5--7-7--8-8--10-10--12-12-12-------------

e|-17-17--15-17--13-15--13-15--12-13-12-10-12------

e|-17-17--15-17--13-15--13-15--12-13--12-13--10-12-
e|-10-12--8-10--8-10--7-8--7-8--5-7--5-7---3-------

e|-3-3--5-5--7-7--8-8--10-10--12-12-12-------------

e|-17-17--15-17--13-15--13-15--12-13-12-10-12------

e|-5-5--3-3--1-3-5-3----12-12-12-10-7--8--7-5-7--5-3-
e|-5-5-5--3-3--1-3-5-3-------------------------------

e|-5h7-5h7-5--3-3--1-3-5-3--5-5--7-7--8-8-8-10-------

e|--12-12-12-10-7--8--7-5-7--5-3--5-5-5--3-3--1-3-5-3-
e|-5h7-5h7--5--

---------------

e|-5h7-5h7-5-3-3-1-3-5-3-3-3-3-12-12-12-10-7-8-7-5-7-5-3-5-5-3-3-1-3-
5-3-
B|-----------------------------------------------------------------------
G|-----------------------------------------------------------------------
D|-----------------------------------------------------------------------
A|-----------------------------------------------------------------------
E|-----------------------------------------------------------------------

e|-5h7-5h7-5-3-3-1-3-5-3-3--5-5-3-3-1-3-5-3-3-3-3-5-5-7-7-7-8-8-10-
10-10
B|----------------------------------------------------------------------
G|----------------------------------------------------------------------
D|----------------------------------------------------------------------
A|----------------------------------------------------------------------
E|----------------------------------------------------------------------

e|-12-12-12-10--7-8-7-5-7-5-3-5-5-3-3-1-3-5-3---------
B|----------------------------------------------------
G|----------------------------------------------------
D|----------------------------------------------------
A|----------------------------------------------------
E|----------------------------------------------------

Am G F G
Άγνωστο· ·····
Am G F G
στο μυαλό σ·· ········
Am G F G Am G F G
Με τις σκιές που θολά ·· ········· ···· ·····
Am G F G Am G F G
Ανυποψίαστοι περαστι···, ······ ···· ···
Am G F G Am G F G
Μα τους ανέχεσαι παθ····· ·· ·· ····· ···

Μια συνουσία μυστική, ··· ········ ·······


Της διαφθοράς, ····· ······
Μες τη μιζέρια δ·· ······· ······

Πετάς τα ρούχα σου ψηλά, ······ ··· ·· ···· ···


Κρατάς τη λύ·· ··· ······
Δεν νιώθε·· ······

Μοναξιά μου όλα

Intro:
Em Bm A Em Bm

Em Bm A Em Bm A
Στις άδειες πόλεις που γυρνάς ······· ·· ········
Em Bm A Am Bm Em
Αδύναμος να προσκυνάς ······ ··· ·· ·········
Em Bm A Em
Σαν Δαίμονας να κουβαλάς ··· ······ ···· ········
Bm A Am Bm
Στα μάτια σου να κυνηγάς ······· ······· ·······

G Em C G
Μοναξιά μου όλα ······· ··· ······
Em Am Bm Em
Μην μ' αφήνεις τώρα π·· ····· ··· ··· ·······

Bm A Em Bm A Em

Τις νύχτες ντύνεσαι μικρ·· ······· ·· ··········


Και ένα κακό που ήρθε χθες ······· ··· ·· ··········
Μοιάζουν οι δρόμοι με φω··· ·· ······ ··· ·······
Έρωτας που θυμίζει πια ····· ··' ······· ···

Έρωτα μου τώρα ····· ··· ······


Μην μ' αφήνεις τώρα πο· ····· ··· ··· ·······

Solo

B-----------8-----8--8------------------------------8--
G--7--9--9-----7--------9------------7-----------------
D--------------------------7---9--9------7---9--9------

B-----------8-----8--8-------------------10--10--8-----10--8-----8-
G--7--9--9-----7--------9------------7--------------9---------9----
D-------------------------7---9--9-----9---------------------------

B-----------8-----8--8------------------------------8---
G--7--9--9-----7--------9------------7------------------
D--------------------------7---9--9------7----9--9------

B----------8-----8--8-----10--10--8-----10--10--8-----10--8-----8-
G--7--9--9----7--------9-------------9-------------9---------9----
D-----------------------------------------------------------------

e--7---10---7--10---7--10---7--------------------------
B------------------------------10--8-------10--10--8---
G--------------------------------------9---------------
D------------------------------------------------------

B--8--8-----8-----8-----8-----------
G--------9-----9-----9-----7--9--7--
D-----------------------------------

e---7--10---7--10---7--10---7------------------7------
B------------------------------10--10--8--10------10--
G-----------------------------------------------------
D-----------------------------------------------------

e---------7-----------7------------7----------7------------7--------7------------
B--10--8-------10--8-------10--8-------10--8-------10--8-------10------10--8-----
G-----------------------------------------------------------------------------9--
D--------------------------------------------------------------------------------

Μόνο για ‘κείνη μη μου λες

Intro: ]x2

-5---3-7-3-8-7---7--10--8--7---3--5---
--------------------------------------
--------------------------------------
--------------------------------------
--------------------------------------
--------------------------------------

Αν έρθεις απ ’το ····· ·· ········


θα έχω το κλειδί ···· ···· ·····
αν θέλεις θα γκρεμ······ ·· ········
δυο ταχυδρόμοι που ξ········· ···· ·····

Αm G F E
Πες μου πες μου αν θέλει· ·· ······· ···· ·······
μόνο για κεί·· ·· ··· ···
την έχω κλείσ·· ··· ·· ····
μόνο για κεί·· ·· ··· ···

Αν έρθεις απ ’το ····· ·· ········


να πεις τις πιο κ···· ··· ········
αυτές που ζωντανε····· ·· ’········
και κατεβάζουν τα ···· ···· ·······

Πες μου πες μου αν θέλει· ·· ······· ···· ·······


Μόνο για κείν·· ·· ··· ···

Outro: ] 2x

-5---3-7-3-8-7-----7--10--8--7------7--3--5-------
--------------------------------------------------
--------------------------------------------------
--------------------------------------------------
--------------------------------------------------
--------------------------------------------------
Να χαθώ στα βήματά σου
Intro

Em Bm C Em Bm C G D G

e------------------------------------5--7--5-7----
B-5--7--8--7-8--7-5--7--8--7-8--7-8---------------
G-------------------------------------------------
D-------------------------------------------------
A-------------------------------------------------
E-------------------------------------------------

G D G D Em Bm C Em

e-5----5--6/7-5----5------------------------------
B---8------------8---8-7-5--7--8--7-8--7-5--------
G-------------------------------------------------
D-------------------------------------------------
A-------------------------------------------------
E-------------------------------------------------

Bm C G D G G D G D

e-----------------5--7--5-7--5----5--6/7-5----------
B-7--8--7-8--7-8---------------8-----------8-7-5----
G------------------------------------------------7--
D---------------------------------------------------
A---------------------------------------------------
E---------------------------------------------------

C G
·· ·· ···· ·· ··· ······ς που σκοτώνουν τη νύχτα

C G
·· ·· ···· ·· ··· ······ς που δε θέλουν να χάσουν

Em C G
······· ··· ·· με βρει η αυγή

Em C G
······· ··· ·· με βρει η αυγή

Em C Em C
·· ······ ··· ··· ···· ·ου να χαθώ στα βήματά σου
Em C Em
·· ···· ···· ·· ·' ··ασες ποτέ σου να χαθώ

·· ······ ··· ··· ···· ··· για ν' αγγίξω την καρδιά σου
·· ······ ····· ········ σου σαν ίσκιος να κρυφτώ
Intro

·· ······· ·· ··· ··· ··ράβι που φεύγει το βράδυ


········ ··· ···· το φεγγάρι ξοπίσω

······· ··· ·· με βρει η αυγή


······· ··· ·· με βρει η αυγή

·· ······ ··· ··· ···· ·ου να χαθώ στα βήματά σου


·· ···· ···· ·· ·' ··ασες ποτέ σου να χαθώ
·· ······ ··· ··· ···· ··· για ν' αγγίξω την καρδιά σου
·· ······ ····· ········ σου σαν ίσκιος να κρυφτώ

Πούλα με

e--------0----------0----------0-----0------|
B----------0----------2----------3-----3----|
G------0----------0----------2-----2--------|
D----2----------2----------0----------------|
A-------------------------------------------|
E-------------------------------------------|

e--------0----------0----------3-----3------|
B----------0----------2----------3-----3----|
G------0----------0----------0-----0--------|
D----2----------2----------0----------------|
A-------------------------------------------|
E-------------------------------------------|

Το παραπάνω κομμάτι παίζεται 3 φορές.

Em C D Em
····· ·· ····· ··· ·ορά, δεν με πειράζει
C D Em
··· ·· ········ ··υ θα μείνω μοναχός
Em C D Em
··· ·· ········ ··· ·· ····α σου σ' αυτόν θα θυσιάζεις
C D Em
····· ····· ·· ····ί σου θα 'ναι αλλού

··' ··· ·· ···· ··χασμένα καλοκαίρια


·· '··· ···· ······ της ατέλειωτης σιωπής
·· '··· ··· ···· ··· χαράς και της μιζέριας
·· '··· ·· ··· ··τά που ζήσαμε μαζί

C D Em
····· ·· ····όν στο ξαναλέω
····· ·· ··· λίγη σιγουριά
····· ·· ···· φθηνά δεν ξέρω
Am Bm Em
···· ·····, να 'ναι αργά

·· ·· ·· ····· ·······α ξερά, δεν με πειράζει


··· ·· ········ ·· ·ν τα χείλη σου γελούν
··· ········· ·· ··· πεις δεν με πειράζει
····· ····· ·· ····ί σου θα 'ναι αλλού

····· ·· ···πόν... ] 2x

Spleen

Solo:
e---0--0--0--1--0-----0--0--0--1--0-----0--0|
B-------------------------------------------|
G-------------------------------------------|

e--0--1--0--5--0-----------------0----------|
B-----------------3-----3--3--3----3-----3--|
G-------------------------------------------|

e-------0----------------0--1--0-----0------|
B-3--3----3-----3--3--3-----------3---------|
G-------------------------------------------|

e---0--0--0--1--0-----0--0--0--1--0-----0--0|
B-------------------------------------------|
G-------------------------------------------|

e--0--1--0--5--0-----------------0----------|
B-----------------3-----3--3--3----3-----3--|
G-------------------------------------------|

e-------0----------------0--1--0------------|
B-3--3----3-----3--3--3---------------------|
G---------------------------------1--2------|

Am E
Είμαι σαν ένας βασιλ··· ·· ········ ····
Am
βαθύπλουτος μα ανίσχυρο· ··· ·········· ······
E
Που αηδιάζει με των αυ····· ··· ·· ·········
Am
βαριέται γάτες και σκυλι· ··· ·' ···· ··········
E
Ούτε τραγούδι ή γιορτ· ·· ······ ·········
Am
ούτε ο λαός του που πεθαίν·· ······· ··' ·· ········

Solo

Am E
Στ' αγαπημένου του τρελ·· ··· ········ ········
Am
το μέτωπο του δεν γελά, ······ ··· ······ ·····
E
Τάφος το απέραντο ··· ······· ·······
Am
ενώ οι πουτάνες της αυλ·· ··· ········· ·· ····

Solo

Am E
Ο άγγελος του δεν μπο··· ···' ··· ·· ·····
Am
να βγάλει απ' το είναι ··· ·· ········· ·····
E
και αυτά τα αιμάτινα λουτ·· ······ ··· ··' ··· ····
Am
που στα στερνά τους οι ισ····· ········· ···· ·····
E
δεν το γιατρεύουν το κορμί ··· ······· ······ ········
Am
που αντί για αίμα ένα νερ· ······· ······ ····· ···

Τα Όνειρα της Μαίρης

Εισαγωγή:
Εm D D C D Em
|--------------3--2-----3-2--3-2----------------------------
|-----0--1--3-----------------------------------------------
|-----------------------------------------------------------
|-----------------------------------------------------------
|-----------------------------------------------------------
|-----------------------------------------------------------

Εm D
Πόσο αλλάζει η ζω· ··· ·· ··· ·····
Am D Em
Τι’ ναι λάθος το π··· ··· ·· ·······
Em D
Σαν τα όμορφα τα ······ ·· ······
Am Bm Em
Που αντέξανε στου ······ ·· ········

G D
Σαν τα όνειρα της Μ····· ··· ·········
Am Bm D Em
Που γίναν δάκρυα οι προ······ ·· ······ ······

Εισαγωγή...

Της άλλης μέρας το πρωί

Intro:
e-8--8--8--10----10-11-10--8--8------------------8--
B---------------------------------6--6-8-9--9-11----

e-8--8--8--10----10-11-10--8--8---------------------
B----------------------------------------8-9-8-6-8--

Cm Fm
······· ··· ···· με στην ψυχή μου
Cm Fm
··· ·········· που δεν τέλειωσε
Cm Fm
··· ····· ·· ····, μα πάλι φοβισμένο
Cm Fm
··· ····· ···· ··· ·ο κράτησα και έμεινε

G# A#
··· ····· ·έρας το πρωί
G# A# Cm
···· ··· ··· ξέρει τίποτα
G# A# Cm
·· ··········· ··τω από ξένη ανάσα
Fm A# Cm
· ·· ··· ········ ···ι με το φως του σήματα
Intro

Cm Fm
·· ······ · ··· ··υ κόλλησε στα ίδια
Cm Fm
··· ··· ····η που πάγωσε
Cm Fm
··· ········ ··· ·ρόνου της συνήθειας
Cm Fm
··· ······ ··· ··νας μου που ράγισε

Τώρα

Intro:

e|------12---------10--------8-------7--------5--------3--3--3h5--0-----|
B|--10------------------------------------------------------------------|
G|----------12p10------10p9-----9p7-----7p5------5--4-------------------|
D|----------------------------------------------------------------------|
A|----------------------------------------------------------------------|
E|----------------------------------------------------------------------|

e|------12---------10--------8-------7--------5--------3--0--3h5--------|
B|--10------------------------------------------------------------------|
G|----------12p10------10p9-----9p7-----7p5------5--4-------------------|
D|----------------------------------------------------------------------|
A|----------------------------------------------------------------------|
E|----------------------------------------------------------------------|

Am Dm E
Για πες μου ότι θέλεις ξ··· ·· ········ ··· ·····
Dm E Am
μια δεύτερη ανάσα ζωή· ··· ······· ·· ·····
Αm Dm E
έρχονται όλοι κοντ· ··· ·· ··········
Dm E Am
τη θάλασσα θέλουν να βρου· ·· ··· ····· ·· ·······

Am Dm Am Dm Am Dm E Am
Ε-ι-ε Ε-ι-ε Ε-·-· ·-·-· ] 2x

Intro

Am Dm E
Αρχίζουν τραγούδια χαρ·· ······ ·· ····· ····
Dm E Am
τα χρώματα τώρα ξυπνούν για ·· ····· ···· ······· ····

Am Dm Am Dm Am Dm E Am
Ε-ι-ε Ε-ι-ε Ε-·-· ·-·-· ] 2x

Intro

Και αύριο όπως και πρ·· · ···· ··· · ······


ξεκινάει απ' την αρχή ··· ··· ···· ·· ····
F Am F Am
Και τώρα όπως και πρι· · ···· ··· ········
F Am E Am
ξεκινάει απ' την αρχή ··· ··· ···· ·· ····

Solo:

e|----------------------------------------------------------------|
B|----------------------------------------------5--8--------------|
G|--7h9--7h9--7h9--7p5--7--7--5--------5--5--7--------------------|
D|-------------------------------7--7-----------------------------|
A|----------------------------------------------------------------|
E|----------------------------------------------------------------|

e|----------------------------------------------------------------|
B|--8--6--8--5-----5--5-----5--5--8p5--------8--10--10--8-----10--|
G|--------------7--------7-------------7--9----------------9------|
D|----------------------------------------------------------------|
A|----------------------------------------------------------------|
E|----------------------------------------------------------------|

e|---------------------------------------------------------------------------|
B|--8-----8-----8h10--8--------------------------8---------------------------|
G|-----9-----9-----------9--7--5--5-----5--7--9-----9--7--7h9--7--7p5--------|
D|-----------------------------------7---------------------------------7--7--|
A|---------------------------------------------------------------------------|
E|---------------------------------------------------------------------------|

e|-----8-----8--------8--7-----7--5--5-----5--5---------------8h10--8-----|
B|--6-----6-----6--6--------5-----------8--------8-----8--10--------------|
G|--------------------------------------------------9---------------------|
D|------------------------------------------------------------------------|
A|------------------------------------------------------------------------|
E|------------------------------------------------------------------------|

e|-------------8--7-----------------8--------8--7-----7--5------------------|
B|--10--8--10---------8--8--10--6------6--6--------5--------10--8--8/10--8--|
G|--------------------------------------------------------------------------|
D|--------------------------------------------------------------------------|
A|--------------------------------------------------------------------------|
E|--------------------------------------------------------------------------|
e|------------------------------------------------------------------------|
B|----------------8----------10--8----------------------------------------|
G|--9\7--5--7--9-----7h9--9---------5--7--5-------------------------------|
D|-------------------------------------------7----------------------------|
A|------------------------------------------------------------------------|
E|------------------------------------------------------------------------|

Am Dm Am Dm Am Dm E Am
Ε-ι-ε Ε-ι-ε ·-·-· ·-·-·...

You get in love

Intro
E----------------------------------------------------------------------------
B----------------------------------------------------------------------------
G--------2--2--0--0--0----0----0------0-----2--2--0--0--0------0------0------
D----------------------------------------------------------------------------
A----3-----------------3----------3------3-----------------3-------------3---
E---------------------------3--------------------------------------3---------

Riff με βιολιά transcribed για κιθάρα:


E----------------------------------------------------------------------------
B----------------------------------------------------------------------------
G--5--9--10---0--4--5---4--5--7---5--7--9---5--9--10---0--4--5---4--5--7---5-
D----------------------------------------------------------------------------
A----------------------------------------------------------------------------
E----------------------------------------------------------------------------

F C G C
· ····· · ····· ·ου δε συμμαζεύεται
F C G C
··· ······ ····· ··· δρόμου που τρελαίνεται
··' ·· ··· ······· ··ένα και συνεπαίρνεται
··' ··· ···· ········ ···να κι από άλλον σπρώχνεται

· ····· · ····· ··· ζει με αποβράσματα


···· ····· ·· ······· και την πιάνουν κλάματα
··· ········· ···ίστα μα τα ψέματα
············ ·· ··έπες της με κέρματα

F C G C
·ou get in lo-ve everybody love ] 4x

· ····· · ····· ··· σαν γκαρσόνα φέρνεται


··· ········ ···· ·····ες δίχως να τους δένεται
··· ···· ····· ·· ···· πως τον άλλον σκέφτεται
·· ···· ····· ···· ···ίξει φεύγει κι έρχεται

· ····· · ····· ··· πιάνει τα μηνύματα


·· ··' ·· ·msterdam ··· στέλνει κρύα χαιρετίσματα
··· ··········· ··· ··ει κάποιον που αγάπησε
·· ·,·· ······ ·· ··· ·ας μια για πάντα τσάκισε

· ····· · ····· ··υ φέγγει ξημερώματα


···· ········ ····· μπαγιάτικα δολώματα
·· ···· ···· ··· ······ουν τότε μ' ονειρεύεται
··· ·········· ··· ·να μπάτσο ερωτεύεται

Υπάρχουν χρυσόψαρα εδώ;

G---7---9---11---9---12---12---11---9---7-------7---9---11---9---12---12---
11---9---7--

G---9---9--------11---9---------12---11--------11---9------------
D-----------9----------------9------------9-----------------9----

G---9---9---------11---9-----12---12---12---12
D------------9------------9-------------------

G---7---9---11---9---12---12---11---9---7-------7---9---11---9---12---12---
11---9---7--

G---9---9--------11---9---------12---11--------11---9------------
D------------9--------------9----------------9--------------9----

G---9---9--------11---9---------12---11--------11---9---11---7---
D------------9--------------9----------------9-------------------------

D Em
Σαν τα καράβια που φαίν····· ·· ····· ·· ·····
Em D
Σταματημένα μέσ’ τ· ···· ··· ·······
D Em
Έχει η ανάσα τους μια γεύ·· ··· ····· ··' ·· ·····
Em D
Που αναστήθηκαν με ····· ······· ·····

D Em
Εσύ δεν ήσουνα που μίλαγ·· ··· ········· ·······;
Em D
Εσύ δεν ήσουνα που ········ ··· ·····;
D Em
Εσύ δεν έλεγες οι άνθρ···· ·· ······ ········
Em D
Από ανθρώπους μηχανές ··· ···· ··· ········

C D Bm Em
Μ' ένα τσιγάρο σ·· ······ ·······
Am D Bm Em
Μοιάζεις με φάρο που ·········· ·· ·····
C Bm G
Μ' ένα τσιγάρο σ·· ······ ·······
Am D Bm Em
Μοιάζεις με φάρο που ·········· ·· ·····

Intro

D Em
Εσύ δε μ' έμαθες ν' αφήνω ·· ·········· ·· ······;
Em D
Στα παλιατζίδικα τα ····· ··· ········
D Em
Γιατί η αξία που μέσα ··· ········ ··· ·····

Em D
Είν' η ελεύθερη ζωή ··· ······ ·· ······
D Em
Υπάρχουν χρυσόψαρα ···, ········ ···
Em D
Μέσα στη γυάλα τ········ ·· ····
D Em
Υπάρχουν χρυσόψαρ· ··· ········ ···
Em D
Ή παραμένει πάντ· ······ · ·····;

C Bm G
Μ' ένα τσιγάρο σ·· ······ ·······
Am Em
Μοιάζεις με φάρο που ·········· ·· ·····
C Bm G
Μ' ένα τσιγάρο σ·· ······ ·······
Am Em
Μοιάζεις με φάρο που ·········· ·· ·····
C D G
Μ' ένα τσιγάρο σ·· ······ ·······
Am Em
Μοιάζεις με φάρο που ·········· ·· ·····

Intro...
Flip side Europe (Solo)

Το ακόλουθο σόλο παίζεται στην εισαγωγή:

e| ---------------------------------------------------------------------|
B| ---------------------------------------------------------------------|
G| -9-9---9-9---9-9-10-9-7-5-7-9-10-9-9-9-7-9-9-9-7-9-9-9-7-9-----------|
D| -----7-----7---------------------------------------------------------|
A| ---------------------------------------------------------------------|
E| ---------------------------------------------------------------------|

e| ---------------------------------------------------------------------|
B| ---------------------------------------------------------------------|
G| -9-9---9-9---9-9-10-9-7-5-7-9-10-9-9-9-7-9-9-9-9---------------------|
D| -----7-----7---------------------------------------7-----------------|
A| ---------------------------------------------------------------------|
E| ---------------------------------------------------------------------|

Χάθηκες αλήτισσα (Τab)


Em Am Em Am Em
e-------------------------------------------------------------------------------
B--5--8--12--12--8-10--10--8-5---5-8-12--12--8-10--10--10--10h12--
12------------
G-------------------------------------------------------------------------------
D-------------------------------------------------------------------------------
A-------------------------------------------------------------------------------
E-------------------------------------------------------------------------------

F Em F G Am
e-------------------------------------------------------------------------------
B--12--13--12--10--10--10--12--13--15--12--12--13--15--13--12--10--8--
8--8h10---
G-------------------------------------------------------------------------------
D-------------------------------------------------------------------------------
A-------------------------------------------------------------------------------
E-------------------------------------------------------------------------------
Am G
e--------------------------------------------------------------------------}
B--10------8h10--10--8--8--8h10--10--10--10--10h12--12--10--10--
10h12--12--}
G--------------------------------------------------------------------------}
D--------------------------------------------------------------------------}
A--------------------------------------------------------------------------}
E--------------------------------------------------------------------------}
}x2
F G F G Am }
e--------------------------------------------------------------------------}
E--12h13--13--13--13--12--12--12--10--10--12--12--13--12--
10---------------}
G--------------------------------------------------------------------------}
D--------------------------------------------------------------------------}
A--------------------------------------------------------------------------}
E--------------------------------------------------------------------------}

Χωρίς ντροπή

Solo:

------------------------------------------------------- |
-----1-5---6-5-3--5-0--6-5-3-1-0----------------------- |
--2---------------------------------------------------- | ] 3x
------------------------------------------------------- |
------------------------------------------------------- |
------------------------------------------------------- |